música
Buscador

Acorde de Lavagem Cerebral - Gabriel O Pensador

Letra de Lavagem Cerebral

Tom: C#







E|------------9-6-----------|

B|---9-6----------9-6-------|

G|-------8-6----------8-6---| (4x)

D|-8----------------------8-|

A|--------------------------|

E|--------------------------|





( Bb5 C#5 )

Racismo preconceito e discriminação em geral

É uma burrice coletiva sem explicação

Afinal que justificativa você me dá para um povo que precisa de união

Mas demonstra claramente

Infelizmente

Preconceitos mil

De naturezas diferentes

Mostrando que essa gente

Essa gente do Brasil é muito burra

E não enxerga um palmo à sua frente

Porque se fosse inteligente esse povo já teria agido de forma mais consciente

Eliminando da mente todo o preconceito

E não agindo com a burrice estampada no peito

A "elite" que devia dar um bom exemplo

É a primeira a demonstrar esse tipo de sentimento

Num complexo de superioridade infantil

Ou justificando um sistema de relação servil

E o povão vai como um bundão na onda do racismo e da discriminação

Não tem a união e não vê a solução da questão

Que por incrível que pareça está em nossas mãos

Só precisamos de uma reformulação geral

Uma espécie de lavagem cerebral



E|-------------6----------------------------------------|

B|-6-9-9-9-6-9---6--------------------------------------|

G|-------------------8-6-6---8-6----------6-6h8-6-------|

D|-------------------------8-----8-6-8--8---------8-6-8-|

A|------------------------------------------------------|

E|------------------------------------------------------|





Não seja um imbecil

Não seja um ignorante

Não se importe com a origem ou a cor do seu semelhante

O quê que importa se ele é nordestino e você não?

O quê que importa se ele é preto e você é branco?



E|-------|

B|-------|

G|-6p5-5-|

D|-------|

A|-------|

E|-------|





Aliás branco no Brasil é difícil porque no Brasil somos todos mestiços

Se você discorda então olhe pra trás

Olhe a nossa história

Os nossos ancestrais

O Brasil colonial não era igual a Portugal

A raiz do meu país era multirracial

Tinha índio, branco, amarelo, preto

Nascemos da mistura então porque o preconceito?

Barrigas cresceram

O tempo passou...

Nasceram os brasileiros cada um com a sua cor

Uns com a pele clara outros mais escura

Mas todos viemos da mesma mistura

Então presta atenção nessa sua babaquice

Pois como eu já disse racismo é burrice

http://www.coveralia.com/acordes/lavagem-cerebral-gabriel-o-pensador.php

Dê a ignorância um ponto final:

Faça uma lavagem cerebral



E|-------------6----------------------------------------|

B|-6-9-9-9-6-9---6--------------------------------------|

G|-------------------8-6-6---8-6----------6-6h8-6-------|

D|-------------------------8-----8-6-8--8---------8-6-8-|

A|------------------------------------------------------|

E|------------------------------------------------------|





Negro e nordestino constroem seu chão

Trabalhador da construção civil conhecido como peão

No Brasil o mesmo negro que constrói o seu apartamento ou que lava o chão de uma delegacia

É revistado e humilhado por um guarda nojento que ainda recebe

O salário e o pão de cada dia graças ao negro ao nordestino e atodos nós

Pagamos homens que pensam que ser humilhado não dói

O preconceito é uma coisa sem sentido

Tire a burrice do peito e me dê ouvidos

Me responda se você discriminaria

Um sujeito com a cara do PC Farias

Não você não faria isso não...

Você aprendeu que o preto é ladrão

Muitos negros roubam mas muitos são roubados

E cuidado com esse branco aí parado do seu lado

Porque se ele passa fome

Sabe como é:

Ele rouba e mata um homem

Seja você ou seja o Pelé

Você e o Pelé morreriam igual

Então que morra o preconceito e viva a união racial

Quero ver essa musica você aprender e fazer

A lavagem cerebral



E|-------------6----------------------------------------|

B|-6-9-9-9-6-9---6--------------------------------------|

G|-------------------8-6-6---8-6----------6-6h8-6-------|

D|-------------------------8-----8-6-8--8---------8-6-8-|

A|------------------------------------------------------|

E|------------------------------------------------------|





O racismo é burrice mas o mais burro não é o racista

É o que pensa que o racismo não existe

O pior cego é o que não quer ver

E o racismo está dentro de você

Porque o racista na verdade é um tremendo babaca

Que assimila os preconceitos porque tem cabeça fraca

E desde sempre não para pra pensar

Nos conceitos que a sociedade insiste em lhe ensinar

E de pai pra filho o racismo passa

Em forma de piadas que teriam bem mais graça

Se não fossem o retrato da nossa ignorância

Transmitindo a discriminação desde a infância

E o que as crianças aprendem brincando

É nada mais nada menos do que a estupidez se propagando

Qualquer tipo de racismo não se justifica

Ninguém explica

Precisamos da lavagem cerebral pra acabar com esse lixo que é uma herança cultural

Todo mundo é racista mas não sabe a razão

Então eu digo meu irmão

Seja do povão ou da "elite"

Não participe

Pois como eu já disse racismo é burrice

Como eu já disse racismo é burrice

E se você é mais um burro

Não me leve a mal

É hora de fazer uma lavagem cerebral

Mas isso é compromisso seu

Eu nem vou me meter

Quem vai lavar a sua mente não sou eu

É você

Discos en los que aparece este acorde: Tas A Ver? O Melhor De Gabriel O Pensador

El acorde de Lavagem Cerebral de Gabriel O Pensador es una versión de la canción original realizada por colaboradores/usuarios de Coveralia.

¿Has encontrado algún error en esta página? Envíanos tu corrección del acorde