música
Buscador

Acorde de La Vereda De La Puerta De Atrás - Extremoduro

Letra de La Vereda De La Puerta De Atrás

------------------------------------------------------

------------------------------------------------------

-------------------------------------0-2-2-0-0---0-2--

-----------------------------0---0-2-----------2------

-0-2-3-3-2-2-0-2-------0-2-3---3----------------------

-----------------3-0-3--------------------------------



--------------------------1>0-5--

-0-1>0---0-----------------------

-------2---0---------------------

-------------2-1-0---0-----------

-------------------3---2---------

---------------------------------



Y A PARTIR DE AQUÍ ENTRAN LOS ACORDES QUE SE TOCAN RASCANDO

SÓLO LAS 3 PRIMERAS CUERDAS, Y LA 4 A MODO DE BAJO:



Lam

Si no fuera



Sol Fa

porque hice colocado



Sol Lam

el camino de tu espera



Sol Fa

me habría desconectado



Sol Lam Sol Fa

condenado a mirarte desde fuera



Sol Lam Sol Fa Sol

y dejar que te tocara el sol.



Lam

Y si fuera



Sol Fa

mi vida una escalera



Sol Lam

me la he pasado entera



Sol Fa

buscando el siguiente escalón



Sol Lam Sol Fa

convencido que estás en el tejado



Sol Lam Sol Fa Sol

esperando a ver si llego yo.



Do Lam Mim

Y dejar de lado la vereda de la puerta de atrás



Fa

por donde te vi pasar



Do Lam Mim

como una regadera que la hierba hace que vuelva a brotar



Fa

y ahora todo es campo ya.



Lam

Sus soldados



Sol Fa

son flores de madera



Sol Lam

y mi ejercito no tiene



Sol Fa

bandera es sólo un corazón



Sol Lam Sol Fa

condenado a vivir entre malezas



Sol Lam Sol Fa Sol

sembrando flores de algodón.



Lam

Si me espera



Sol Fa

la muerte traicionera

http://www.coveralia.com/acordes/la-vereda-de-la-puerta-de-atras-extremoduro.php



Sol Lam

y antes de repartirme



Sol Fa

del todo me veo en un cajón



Sol Lam Sol Fa

que me entierren con la picha por fuera



Sol Lam Sol Fa Sol

pa' que se la coma un ratón.



Do Lam Mim

Y muere a todas horas gente dentro de mi televisor



Fa

quiero oir alguna canción



Do Lam Mim

que no hable de sandeces y que diga que NO sobra el amor



Fa

y que empiece en SI y no en no.



Do Lam Mim

Y dejar de lado la vereda de la puerta de atrás



Fa

por donde te vi marchar



Do Lam Mim

como una regadera que la hierba hace que vuelva a brotar



Fa

y ahora todo es campo ya.





AHORA APARECE UN PUNTEILLO MUY FACILÓN, LO HACEN 2 GUITARRAS

DE IGUAL MODO PERO EN DISTINTO TONO, Y VAN COGIENDO CADA VEZ MÁS

RITMILLO, ES SÓLO CUESTIÓN DE ESCUCHARLO. (POR CIERTO AHORA CON ROBE

CANTA FITO).



------------------------------------------------------

-----------1-0------------------------1-0-------------

-0-0-0-0-0-----0-0-0--------0-0-0-0-0-----0-0-0-------

---------------------3-2-2----------------------3-2-3-

------------------------------------------------------

------------------------------------------------------



-----------0--------------------------0---------------

-1-1-1-1-1---3-0-0-0--------1-1-1-1-1---3-0-0-0-------

---------------------2-0-0----------------------2-0-2-

------------------------------------------------------

------------------------------------------------------

------------------------------------------------------



Fa Sol Lam

Dices que a veces no comprendes que dice mi voz



Sol

como quieres que esté dentro de tu ombligo



Fa Sol Lam

si entre los dedos se me escapa volando una flor



Sol

y ella solita va marcando el camino.



Fa Sol Lam

Dices que a veces no comprendes que dice mi voz



Sol

como quieres que yo sepa lo que digo



Fa Sol Lam

si entre los dedos se me escapa volando una flor



Sol

y yo la dejo que me marque el camino.





Y SE VUELVE A REPETIR EL PUNTEILLO FACILÓN ACABANDO

DE DISTINTA FORMA, RALENTIZANDO EL FINAL, CON UN POCO

DE OIDO SE COGE RÁPIDO.





Letra subida por: Anónimo

El acorde de La Vereda De La Puerta De Atrás de Extremoduro es una versión de la canción original realizada por colaboradores/usuarios de Coveralia.

¿Has encontrado algún error en esta página? Envíanos tu corrección del acorde