música
Buscador

Acorde de La Ventanita - Sergio Vargas

Letra de La Ventanita

LA VENTANITA-SERGIO VARGAS



CON CAPO EN EL PRIMER TRASTE PARA TODA LA CANCIÓN

e, b, g, d, a, E ; sólo indican la cuerda.



UN ARREGLO PARA GUITARRA (PUNTEO),

EL MISMO RITMO PERO SÓLO EN GUITARRA.





INTRO:

C MAYOR*2

e|-----1-0----0--|

b|-1-3------3---1|



e|-----1-0----0--|

b|-1-3------3---1|



e|---0-3-1-0-1---|

b|-3-----------3-|



e|---0-3-1-0-1-3-|

b|-3-------------|



SE REPITE LA TABLATURA

G MAYOR*2



ESTROFAS:

Desde que me dejaste,

b|-------3-1-1---|

g|-0-0-0--------2|



La ventanita del amor se me cerró

b|---1-3-1------0-----------|

g|-2-------0-2----2----0-2-0|

d|-------------------3------|



Desde que me dejaste,

g|--------2-0-0--|

d|-2-2-2--------3|



Las azucenas han perdido su color

b|---0-1-0-----0-----------|

g|-2-------0-2----2---0-2-0|

d|------------------3------|



Desde que me dejaste,

b|-------3-1-1---|

g|-0-0-0--------2|





La ventanita del amor se me cerró

b|---1-3-1------0-----------|

g|-2-------0-2----2----0-2-0|

d|-------------------3------|



GUITARRA 2:

G

e|-------3-3|

b|-----3---3|

g|---4------|

d|-5--------|



Desde que me dejaste,

g|--------2-0-0--|

d|-2-2-2--------3|



No hago más nada que extrañarte, corazón

b|---0-1-0-----0----------1|

g|-2-------0-2----2---0-2--|

d|------------------3------|





ESTRIBILLO:



Tengo el alma en pedazos,

e|-----1-0----0--|

b|-1-3------3---1|





Ya no aguanto esta pena

e|-----1-0----0--|

b|-1-3------3---1|



Tanto tiempo sin verte

e|---0-3-1-0-1---|

b|-3-----------3-|



Es como una condena

e|---0-3-1-0-1-3-|

b|-3-------------|



SE REPITE EL ESTRIBILLO



Es tan bonito tener tu cariño

e|-1-1-0-0----------------|

b|----------3-3-3-1-1-1---|

g|-----------------------0|



Que no soy nada si no estoy contigo

e|-1-1-1-1-0------------|

b|-----------3-3-1-1-1--|

g|---------------------2|



Y tenerte por siempre conmigo,

e|-1-1-1-0------------|

b|----------3-3-1-1-1--|

g|---------------------2|



Ser tu abrigo en las noches de frío

e|-1-0-1-0----0-------|

b|----------3---3-1-3-1|



ESTRIBILLO UNA VEZ MÁS



INTERMEDIO I:



e|-----1-0----0--|

b|-1-3------3---1|



e|-----1-0----0--|

b|-1-3------3---1|



e|---0-3-1-0-1---|

b|-3-----------3-|



e|---0-3-1-0-1-3-|

b|-3-------------|



SE REPITE LA TABLATURA

G MAYOR*2



ESTROFAS:

Desde que me dejaste,

b|-------3-1-1---|

g|-0-0-0--------2|



La ventanita del amor se me cerró

b|---1-3-1------0-----------|

g|-2-------0-2----2----0-2-0|

d|-------------------3------|



Desde que me dejaste,

g|--------2-0-0--|

d|-2-2-2--------3|



Las azucenas han perdido su color

b|---0-1-0-----0-----------|

g|-2-------0-2----2---0-2-0|

d|------------------3------|



Desde que me dejaste,

b|-------3-1-1---|

g|-0-0-0--------2|



La ventanita del amor se me cerró

b|---1-3-1------0-----------|

g|-2-------0-2----2----0-2-0|

d|-------------------3------|



GUITARRA 2:

G

e|-------3-3|

b|-----3---3|

g|---4------|

d|-5--------|



Desde que me dejaste,

g|--------2-0-0--|

d|-2-2-2--------3|



A LA VEZ GUITARRA 2

B|--------------3---3|

g|---2---2----1---2--|

d|-0---3-------------|

http://www.coveralia.com/acordes/la-ventanita-sergio-vargas.php



No hago mas nada que extrañarte, corazón

b|---0-1-0-----0----------1|

g|-2-------0-2----2---0-2--|

d|------------------3------|



ESTRIBILLO:

Tengo el alma en pedazos,

e|-----1-0----0--|

b|-1-3------3---1|



Ya no aguanto esta pena

e|-----1-0----0--|

b|-1-3------3---1|



Tanto tiempo sin verte

e|---0-3-1-0-1---|

b|-3-----------3-|



Es como una condena

e|---0-3-1-0-1-3-|

b|-3-------------|



SE REPITE EL ESTRIBILLO



Es tan bonito tener tu cariño

e|-1-1-0-0----------------|

b|----------3-3-3-1-1-1---|

g|-----------------------0|



Que no soy nada si no estoy contigo

e|-1-1-1-1-0------------|

b|-----------3-3-1-1-1--|

g|---------------------2|



Y tenerte por siempre conmigo,

e|-1-1-1-0------------|

b|----------3-3-1-1-1--|

g|---------------------2|



Ser tu abrigo en las noches de frío

e|-1-0-1-0----0-------|

b|----------3---3-1-3-1|



ESTRIBILLO UNA VEZ MÁS



INTERMEDIO II(SE EJECUTA DOS VECES):

(ENTRA LA GUITARRA 2)





GUITARRA 2

d|-------------------------0------|

a|-3-3-----3--3-0--3-3-3-3---3----|

E|------3----------------------3-3|



4 VECES



(ENTRA LA GUITARRA 2)



A LA VEZ:

GUITARRA 2

d|-------------------------0------|

a|-3-3-----3--3-0--3-3-3-3---3----|

E|------3----------------------3-3|



GUITARRA 1



G|------0-0-0---------------0-0--|

d|----2-------2-----------2-----2|

a|--3-----------3---3---3--------|

E|-3--------------3---3----------|



4 VECES



ESTRIBILLO:



Tengo el alma en pedazos,

e|-----1-0----0--|

b|-1-3------3---1|



Ya no aguanto esta pena

e|-----1-0----0--|

b|-1-3------3---1|



Tanto tiempo sin verte

e|---0-3-1-0-1---|

b|-3-----------3-|



Es como una condena

e|---0-3-1-0-1-3-|

b|-3-------------|



SE REPITE EL ESTRIBILLO





Es tan bonito tener tu cariño

e|-1-1-0-0----------------|

b|----------3-3-3-1-1-1---|

g|-----------------------0|



Que no soy nada si no estoy contigo

e|-1-1-1-1-0------------|

b|-----------3-3-1-1-1--|

g|---------------------2|



Y tenerte por siempre conmigo,

e|-1-1-1-0------------|

b|----------3-3-1-1-1--|

g|---------------------2|



Ya no soy nada si no tengo tu cariño

e|-1-1-1-1-0---0------------|

b|-----------3---3-3-3-1-3-1|



ESTRIBILLO UNA VEZ MÁS



INTERMEDIO III:

(ENTRA LA GUITARRA 2)

GUITARRA 2

d|-------------------------0------|

a|-3-3-----3--3-0--3-3-3-3---3----|

E|------3----------------------3-3|

4 VECES



A LA VEZ:

GUITARRA 2

d|-------------------------0------|

a|-3-3-----3--3-0--3-3-3-3---3----|

E|------3----------------------3-3|



GUITARRA 1

G|-0---------0-0---|

d|--2-------------2|

a|---3------3------|

E|----3-3--3-------|

4 VECES



GUITARRA 2

d|-------------------------0------|

a|-3-3-----3--3-0--3-3-3-3---3----|

E|------3----------------------3-3|

2 VECES



GUITARRA 1

g|------0-0-0---------------0-0--|

d|----2-------2-----------2-----2|

a|--3-----------3---3---3--------|

E|-3--------------3---3----------|



GUITARRA 2

d|-------------------------0------|

a|-3-3-----3--3-0--3-3-3-3---3----|

E|------3----------------------3-3|

3 VECES



GUITARRA 2

d|-------------------------0------|

a|-3-3-----3--3-0--3-3-3-3---3----|

E|------3----------------------3-3|



GUITARRA 1

g|------0-0-0---------------0-0-0--|

d|----2-------2-----------2-------2|

a|--3-----------3---3---3----------|

E|-3--------------3---3------------|



e|-3--|

b|-5--|

g|-5--|

d|-5--|

a|-3--|

E|-3--|

Letra subida por: Anónimo

¿Has encontrado algún error en esta página? Envíanos tu corrección del acorde