música
Buscador

Acorde de La Semilla - Las Pelotas

Letra de La Semilla

Intro:



E----------------------------------------------------

B---------------------1------------------------------

G----0---------------0-0-----0-3-0-------------------

D---0-0----0-3-0-------------------------------------

A------------------3-------3-------------------------

E-3-----3-------------------------------------------- X2



riff:



E----------------------------------------------------

B---------------------1------------------------------

G----0---------------0-0-----0-3-0-------------------

D---0-0----0-3-0-------------------------------------

A------------------3-------3-------------------------

E-3-----3--------------------------------------------



(riff)

Mirando la semilla cuando sale

Que misterio traerá

Que es lo que busca

Alguna vez creíste en los cuentos de niños

Y en las virtudes de las hadas



riff X2



(riff)

Y otra vez de nuevo

Hasta dónde de

Tu sabes

Y otra vez de nuevo

Hasta dónde de

Tu sabes



1/-----------------------------------------

2/-----------------------------------------

3/--5h7s--5h7-5-----5s--5b-----------------

4/---------------7b--------7-5---5-5-5-----

5/-----------------------------7-----------

6/-----------------------------------------





-------------------------------------------------|

---------------------------------------8s--------|

---------5-5-5-5b-5b-5b-5b-7b-7b-7b-7b-----------|

-----5-7-----------------------------------------|

---7---------------------------------------------|

http://www.coveralia.com/acordes/la-semilla-las-pelotas.php

-------------------------------------------------|





Gm Cm

Si no quieres más te vale

Gm Cm

Si estás aquí



Dm Cm

Nunca te preguntas

Dm Cm

Nunca te preguntas



Gm Cm

Cuántos días, cuántas veces

Gm Cm

Llevará aprender



Gm

Que no puede ver

Cm

Que siempre quieres mas

Gm

Solo ambición

Cm

Solo más poder



Gm Cm

Dónde fueron, los que fueron

Gm Cm

Dónde está el porvenir



Dm Cm

Nunca te preguntas

Dm Cm

Nunca te preguntas



Solo: Gm (0:14)



Gm Cm

Si no quieres más te vale

Gm Cm

Dónde está el porvenir



Gm Cm

Nunca te preguntas (hasta el final)



Letra subida por: Anónimo

Discos en los que aparece este acorde: Despierta , Despierta , Vivo , Vivo

El acorde de La Semilla de Las Pelotas es una versión de la canción original realizada por colaboradores/usuarios de Coveralia.

¿Has encontrado algún error en esta página? Envíanos tu corrección del acorde