música
Buscador

Acorde de La Noche - Octavia



Intro:



Con distorsión



e|-----------------------------|

B|-----------------------------|

G|------4------7---------------|

D|------4------7------4-7-7-4--|x4

A|--2-2-2--5-5-5------4-7-7-4--|

E|----------------2-2-2 5-5-2--|



(sin distorsión)



Bm F#m

La luna me deja percibir

Bm F#m

Contornos de sal

Bm F#m

La noche comienza a destilar

Bm F#m

Su espíritu natural



(esta estrofa se toca con INTRO)



Rumor de una noche tibia



Cuerpos en ebullición



Rugen voces clandestinas

A

Fuego...



CORO:



Con distorsión



G A

e|----------|

B|----------|

G|----------|

D|---5---7--|

A|---5---7--|

E|---3---5--|

G A

Arde la noche en mi pieeeel



Arde la noche

G A

Arde la noche

G A

Arde la noche en mi pieeeel

http://www.coveralia.com/acordes/la-noche-octavia.php



Arde la noche

G A

Arde la noche

G A

Arde la noche en mi pieeeel



Arde la noche

G A

Arde la noche

G A

Arde la noche en mi piel



(INTRO)



(sin distorsión)



Bm F#m

Su savia comienza a circular

Bm F#m

Su savia es letal

Bm F#m

Luego tendrás la necesidad

Bm F#m

De volverla a probar



(esta estrofa se toca con INTRO)



Rumor de una noche tibia



Cuerpos en ebullición



Rugen voces clandestinas

A

Fiebre...



(CORO)



Puente instrumental de guitarra:



Sin distorsión

Bm A

e|---2-2-2-2-2-2xx2---5-5-5-5-5-5xx5---|

B|---3-3-3-3-3-3xx3---5-5-5-5-5-5xx5---|

G|---4-4-4-4-4-4xx4---6-6-6-6-6-6xx6---|

D|---4-4-4-4-4-4xx4---7-7-7-7-7-7xx7---|x4

A|---2-2-2-2-2-2xx2---7-7-7-7-7-7xx7---|

E|---2-2-2-2-2-2xx2---5-5-5-5-5-5xx5---|





(CORO)

Letra subida por: Anónimo

Discos en los que aparece este acorde: 4

El acorde de La Noche de Octavia es una versión de la canción original realizada por colaboradores/usuarios de Coveralia.

¿Has encontrado algún error en esta página? Envíanos tu corrección del acorde