música
Buscador

Acorde de La Murga - Hector Lavoe

Letra de La Murga

Riff 1 (Al inicio sin acompañamiento y 4 veces.)
e|--------------------|
B|--------------------|
G|-----2--------------|
D|-0-3-----------2-0.-|
A|-------0.--0-4------|
E|--------------------|

      A            Dm
e|--------------------|
B|--------------------|
G|-----2--------------|
D|-0-3-----------2-0.-|
A|-------0.--0-4------|
E|--------------------|

Dm                 A
Vamos a bailar la murga,
                  Dm
la murga del Panamà
                      A
los muchachos se alborotan
                  Dm
cuando la ven caminar.

                       A
Eh! vamos a bailar la murga
                  Dm
la murga del Panamà
                  A
esto es una cosa fácil
                    Dm
y muy buena pa' bailar.


Dm                 A
Vamos a bailar la murga,
                  Dm
la murga del Panamà
                      A
los muchachos se alborotan
                  Dm
cuando la ven caminar.

Dm                    A
Ay! tu tienes un caminao
                    Dm
que me tiene trastornao
                    A
y cuando bailas la murga,
             Dm
oye mamita qué buena estas.


-Riff 1 (x4)


Riff 2 (x2)
  Dm            A                 Dm
e|----------------------------------|
B|----------------------------------|
G|-----2-2------------0-0-0-2-0-----|
D|-0-3-----3-0---2--------------2-0-|
A|-------------4--------------------|
E|----------------------------------|


Dm              A
Murga pa' aquí murga pa' allá
                 Dm
esta es la murga de Panamà.
              A
Oye muchacha vamo' a bailar
                 Dm
esta es la murga de Panamà.
                      A
Eeeesta es la murga de Panamà
                 Dm
esta es la murga de Panamà.
            A
Oooooye quiero bailar
                 Dm
esta es la murga de Panamà.
                         A
Eeh y panama y panama y pana pana Panamá
    (*SOLO*)           Dm
esta es la murga de Panamà.


*SOLO* (Todo: Dm - A)
                             ataca Yomo!
e|-6-5---------------------------------------
B|-----8-6-5-6--9h10v--9-9h10-9-9h10-9-9h10--
G|-------------------------------------------
D|-------------------------------------------
A|-------------------------------------------
E|-------------------------------------------

e|----------------------------
B|----------------------------
G|-10---10-10-10-10-10-10-10--
D|----9-9--9--9-----9--9--9---
A|----------------------------
E|----------------------------

e|-------9-12-12-12-12-12-12-10-9----9----12-12-----9-9--
B|-10-12--------------------------12---12--------12------
G|-------------------------------------------------------
D|-------------------------------------------------------
A|-------------------------------------------------------
E|-------------------------------------------------------

e|-------9-10-12-9-10----10---------------------
B|-10-12--------------10----13-11-10------------
G|-----------------------------------12-10-9-8--
D|----------------------------------------------
A|----------------------------------------------
E|----------------------------------------------

e|-----------------------3-5--
B|---8---------------5-6------
G|-9---7-6-----4-6-7----------
D|-----------7----------------
A|----------------------------
E|----------------------------

e|-----5-----5-----5-----5-----5-----5-----5--
B|---6-----6-----6-----6-----6-----6-----6----
G|-7-----7-----7-----7-----7-----7-----7------
D|--------------------------------------------
A|--------------------------------------------
E|--------------------------------------------

e|---------------------6-5--------
B|---6-8-5-----------6-----8-6-5--
G|-7-------6-------7--------------
D|-----------7-5-7----------------
A|--------------------------------
E|--------------------------------

                        |---x4---| |---x4---| en el cuatro... Yomo Toro!
e|-4-5--------4-5---------4-5--------4-5------
B|-----6-5--------6-5---------5----------6----
G|---------7----------7---------6----------7--
D|--------------------------------------------
A|--------------------------------------------
E|--------------------------------------------

e|-4-5---------------6-5-------------------10--
B|-----5-----------6-----8-6-5----------10-----
G|-------6-------7-------------7-6-7-----------
D|---------7-5-7-------------------------------
A|---------------------------------------------
E|---------------------------------------------

e|-------------------------10-12-9----------
B|-10v-10v-10v-10v------10---------10-8-----
G|-------------------12-----------------10--
D|------------------------------------------
A|------------------------------------------
E|------------------------------------------

e|----13-12-10-----------|
B|-10----------13-11-10--|
G|-----------------------|
D|-----------------------|
A|-----------------------|
E|-----------------------|


(Riff 1) (x5)

(Riff 2) (x2)
                             Guapea Willie Colón!!
e|----------------------------------
B|---------------5----6-5-8.-6-5----
G|-------7-----6-----------------7--
D|-----7-----5----------------------
A|-5-8-----7------------------------
E|----------------------------------

          el diablo!!
e|---------------------------|
B|-----5---------------------|
G|-7-6---7-------------------|
D|----------8-7-5-----5-3-2--|
A|----------------8-7--------|
E|---------------------------|


(Riff 2) (x2)


e|-6.-5-5.--------------------------------|
B|---------8-6-5-8-6-5-------5-----5-6-8--|
G|---------------------7---6---6-7--------|
D|----------------------------------------|
A|----------------------------------------|
E|----------------------------------------|


(Riff 2) (x2)


e|------------------------------------------
B|-----6-8v-8-8v--6-5------------------6----
G|---7----------------7-6----------------7--
D|-7----------------------8-7--8-7-8-7------
A|------------------------------------------
E|------------------------------------------

e|------------------------------|
B|-10.-8.---------------5-------|
G|--------10.-9.-7.-6.----6-7---|
D|----------------------------7-|
A|------------------------------|
E|------------------------------|


(Riff 2) (x2)


Dm              A
Murga pa' aquí murga pa' allá
                 Dm
esta es la murga de Panamà.
                    A
Esta es la murga y qué buena está
                 Dm
esta es la murga de Panamà.
                            A
Eyy! chacuchucucha y chacuchucuchachacha
                 Dm
esta es la murga de Panamà.
                        A
Qué buena la maraca la murga mamá
                 Dm
esta es la murga de Panamà.


-Riff 1 (x4)


  Dm            A                 Dm
e|----------------------------------|
B|----------------------------------|
G|-----2-2------------0-0-0-2-0-----|
D|-0-3-----3-0---2--------------2-0-|
A|-------------4--------------------|
E|----------------------------------|

  Dm            A                 Dm
e|----------------------------------|
B|------------------------------2-3-|
G|-----2-2------------0-0-0-2-0-----|
D|-0-3-----3-0---2------------------|
A|-------------4--------------------|
E|----------------------------------|

                    Bb   F
e|-----------------|
B|-----------------|
G|-----1-1---------|
D|-3-3-----3---1-3-|
A|-----------3-----|
E|-----------------|



Letra subida por: Anónimo

Discos en los que aparece este acorde: Live , Anthology , The Fania Legends Of Salsa Collection Volume 1 , La Voz (2007)

El acorde de La Murga de Hector Lavoe es una versión de la canción original realizada por colaboradores/usuarios de Coveralia.

¿Has encontrado algún error en esta página? Envíanos tu corrección del acorde