música
Buscador

Acorde de La Magia - Little Jesus



Todo lo que hace la segunda guitarra es arpegiar los acordes

de la siguiente manera durante toda la canción:

A# Gm Dm D#

e|---------- e|---------- e|---------- e|----------

B|-----6---- B|-----8---- B|-----6---- B|-----8----

G|---7---7-- G|---7---7-- G|---7---7-- G|---8---8--

D|-8-------- D|-8-------- D|-7-------- D|-8--------

A|---------- A|---------- A|---------- A|----------

E|---------- E|---------- E|---------- E|----------



INTRO:

A# Gm

e|---------- e|----------

B|-----6---- B|-----8----

G|---7---7-- x8 G|---7---7-- x8

D|-8-------- D|-8--------

A|---------- A|----------

E|---------- E|----------



Riff Inicial:



e|--------------------------------------------------------------------

B|--------------------------------------------------------------------

G|-15-15--12-14-14--10-12-12--7h8s10--10-12---------------------------

D|-----------------------------------------12---10-12-12--10-12-10-8--

A|--------------------------------------------------------------------

E|--------------------------------------------------------------------



A#

Ese trabajo te va a matar

A#

no se como lo puedes aguantar

Gm

abre los ojos para verlo

Gm

crees que estás lejos pero sigues igual

A#

corriendo a toda velocidad

A#

se te va el tren y no va a regresar

Gm

eso te pasa cuando cambias,

Gm

eso te pasa por hablar de



Dm D# A#

más y que más da, lo que será,

Dm D# A#

cuanto tiempo crees que durará

Dm D# A#

si no tenemos nada, siempre podemos aportar,

Dm D# A#

yo las canciones y tú la magia



Arreglo del sintetizador (entra cuando acaba el coro y recomienza la estrofa):

A#

e|-----------------------------------------

B|-----------------------------------------

G|-----------------------------------------

D|-8-8-8-8-8-8-8-8-10--8-8-8-8-8-8-8-8-10--

A|--8-8-8-8-8-8-8-------8-8-8-8-8-8-8------

E|-----------------------------------------

Gm

e|-------------------------------------------------------

B|-------------------------------------------------------

G|-------------------------------------------------------

D|-8--8--8--8--8--8--8--8-10--8--8--8--8--8--8--8--8-10--

A|--10-10-10-10-10-10-10-------10-10-10-10-10-10-10------

E|-------------------------------------------------------



A#

y ya se que no vas a regresar

A#

pero nadie se tiene que enterar,

Gm

de lo que pasa cuando faltas,

Gm

y todo lo que falta por pa-

A#

sar corriendo a toda velocidad

A#

sin miedo pero con ansiedad

Gm

los días se pasan muy lento

http://www.coveralia.com/acordes/la-magia-little-jesus.php

Gm

las noches son nuestra especiali-



Dm D# A#

dad y que más da, lo que será

Dm D# A#

cuanto tiempo crees que durará

Dm D# A#

si no tenemos nada, siempre podemos aportar,

Dm D# A#

yo las canciones y tú la magia



INTERMEDIO:

Dm D# A#

e|---1---3---------------

B|--3---4----3--3--3--3--

G|-2---3----3--3--3--3---

D|---------3--3--3--3---- x2

A|-----------------------

E|-----------------------



Gm A# F D#

e|----------10------------------------

B|---10---10-------10-----8--8--8--8--

G|--7----7-------10------8--8--8--8---

D|-8------------7-------8--8--8--8---- x2

A|------------------------------------

E|------------------------------------



F

e|----------------------

B|---10---10---10---10--

G|--10---10---10---10---

D|-10---10---10---10---- x2

A|----------------------

E|----------------------



A#

y ya se que no vas a regresar

A#

pero nadie se tiene que enterar,

Gm

de lo que pasa cuando faltas,

Gm

eso te pasa por hablar de



Dm D# A#

más y que más da, lo que será,

Dm D# A#

cuanto tiempo crees que durará

Dm D# A#

si no tenemos nada, siempre podemos aportar,

Dm D# A#

yo las canciones y tú la magia





Dm D# A#

no, no puede ser, que vas a ser

Dm D# A#

te quiero volver a conocer,

Dm D# A#

si no tenemos nada siempre podemos apareceeeer



e|------------------------------------

B|---13h15h16p15p13--13--13-13h15-----

G|-15--------------15------------15---

D|---------------------------------15- x4

A|------------------------------------

E|------------------------------------



Dm D# A#

yo las canciones y tú la magia

Dm D# A#

yo las canciones y tú la magia

Dm D# A#

yo las canciones y tú la magia

Dm D# A#

yo las canciones y tú la magia



Dm D#

yo las canciones y tú la magia

Dm D# A#

yo las canciones y tú la magia.



Letra subida por: Anónimo

Discos en los que aparece este acorde: Rio Salvaje

El acorde de La Magia de Little Jesus es una versión de la canción original realizada por colaboradores/usuarios de Coveralia.

¿Has encontrado algún error en esta página? Envíanos tu corrección del acorde