música
Buscador

Acorde de La Luna (7") - Belinda Carlisle

Letra de La Luna (7")



These are the chords I use:



C#m F#m E C#7 D A Bm Em G C

|--4--|--2--|--0--|--4--|--2--|--0--|--2--|--0--|--3--|--0--|

|--5--|--2--|--0--|--6--|--3--|--2--|--3--|--0--|--0--|--1--|

|--6--|--2--|--1--|--4--|--2--|--2--|--4--|--0--|--0--|--0--|

|--6--|--4--|--2--|--6--|--0--|--2--|--4--|--2--|--0--|--2--|

|--4--|--4--|--2--|--4--|--0--|--0--|--2--|--2--|--2--|--3--|

|-----|--2--|--0--|--4--|-----|--0--|-----|--0--|--3--|--0--|





Gm D# A# F

|--3--|--6--|--6--|--1--|

|--3--|--8--|--6--|--1--|

|--3--|--8--|--7--|--2--|

|--5--|--8--|--8--|--3--|

|--5--|--6--|--8--|--3--|

|--3--|--6--|--6--|--1--|





*******************************Here we go!**********************************





Intro: C#m



e |----------------------------|----------------|-----------------|

B |--------5--4----------------|--5--4----------|--5--4-----------|

G |--6-----------6--4--6-------|-------6--4--6--|--------6--4-----|

D |-------------------------6--|----------------|--------------6--|

A |----------------------------|----------------|-----------------|

E |----------------------------|----------------|-----------------|







F#m

I remember when I met you

E

All the stars were hanging in mid-air.

C#m

In these moments - nothing mattered,

C#7 F#m

But the way you caught me in your stare.



We were walking - we were talking,

E

We were laughing about the state of our lives;

C#m

How our fates brought us together

C#7

As the moon was rising in your eyes.





D

On and on the night was falling

A E

Deep down inside us.

D Bm E C#7

On and on a light was shining right through...





Chorus:

F#m

Ah, la Luna, la Luna,

D A E

The night that we fell under the spell of the moon.

F#m

Ah, la Luna, la Luna,

D A E

The light that will bring me back to you,

F#m

The light of la Luna.





[Repeat Intro]





F#m

In the hotels, in the cafes,

E

All the world was made with romance.

C#m

http://www.coveralia.com/acordes/la-luna--7---belinda-carlisle.php

In the harbor moonlit water,

C#7 F#m

All the ships were swaying in a dance.



Then you held me and you kissed me,

E

And I knew I had to be with you.

C#m

You didn't ask me, you just took me

C#7

To the tiny bed in your tiny room.



D

On and on the band was playing

A E

A song of surrender.

D Bm E C#7

On and on the sun would soon break thru...





Chorus:

F#m

Ah, la Luna, la Luna,

D A E

The night that we fell under the spell of the moon.

F#m

Ah, la Luna, la Luna,

D A E

The light that will bring me back to you.

F#m

Ah, la Luna, la Luna,

D A E

The night that we fell under the spell of the moon.

F#m

Ah, la Luna, la Luna,

D A E

The light that will bring me back to you,

F#m

The light of la Luna.





Em

[I don't know this part very well, so I just play "Em" for a while]





G D Em Bm

Now I walk along the streets of Marseilles,

Em Bm Em Bm

The winter sky is cold and gray.

G D Em Bm

And I don't know why I left you that day,

C D Em(*)

And I don't know where you are





Em...





Chorus:

Gm

Ah, la Luna, la Luna,

D# A# F

The night that we fell under the spell of the moon.

Gm

Ah, la Luna, la Luna,

D# A# F

The light that will bring me back to you.

Gm

Ah, la Luna, la Luna,

D# A# F

The night that we fell under the spell of the moon.

Gm

Ah, la Luna, la Luna,

D# A# F

The light that will bring me back to you,

Gm

The light of la Luna...







Letra subida por: Anónimo

Discos en los que aparece este acorde: Runaway Horses (Deluxe Edition)

El acorde de La Luna (7") de Belinda Carlisle es una versión de la canción original realizada por colaboradores/usuarios de Coveralia.

¿Has encontrado algún error en esta página? Envíanos tu corrección del acorde