música
Buscador

Acorde de La Llama Eterna - Avalanch

Letra de La Llama Eterna

guitarra 1, ojo, esta es la parte lead....



Guitarra 1



D#||-------------------------------------|

A#||--12-0-0-12-0-0-10-0-8-0-7-0-8-0-5-0-|

F#||-------------------------------------|

C#||-------------------------------------|

G#||-------------------------------------|

D#||-------------------------------------|







-----------------------------------------|-------------------------------------|

--12-0-0-12-0-0-12-0-13-0-16-0-13-0-12-0-|--12-0-0-12-0-0-10-0-8-0-7-0-8-0-5-0-|

-----------------------------------------|-------------------------------------|

-----------------------------------------|-------------------------------------|

-----------------------------------------|-------------------------------------|

-----------------------------------------|-------------------------------------|







-----------------------------------------|-------------------------------------|

--12-0-0-12-0-0-12-0-13-0-16-0-13-0-12-0-|--12-0-0-12-0-0-10-0-8-0-7-0-8-0-5-0-|

-----------------------------------------|-------------------------------------|

-----------------------------------------|-------------------------------------|

-----------------------------------------|-------------------------------------|

-----------------------------------------|-------------------------------------|







-----------------------------------------|-------------------------------------|

--12-0-0-12-0-0-12-0-13-0-16-0-13-0-12-0-|--12-0-0-12-0-0-10-0-8-0-7-0-8-0-5-0-|

-----------------------------------------|-------------------------------------|

-----------------------------------------|-------------------------------------|

-----------------------------------------|-------------------------------------|

-----------------------------------------|-------------------------------------|







-----------------------------------------|-------------------------------------|

--12-0-0-12-0-0-12-0-13-0-16-0-13-0-12-0-|--12-0-0-12-0-0-10-0-8-0-7-0-8-0-5-0-|

-----------------------------------------|-------------------------------------|

-----------------------------------------|-------------------------------------|

-----------------------------------------|-------------------------------------|

-----------------------------------------|-------------------------------------|







-----------------------------------------|-------------------------------------|

--12-0-0-12-0-0-12-0-13-0-16-0-13-0-12-0-|--12-0-0-12-0-0-10-0-8-0-7-0-8-0-5-0-|

-----------------------------------------|-------------------------------------|

-----------------------------------------|-------------------------------------|

-----------------------------------------|-------------------------------------|

-----------------------------------------|-------------------------------------|







-----------------------------------------|

--12-0-0-12-0-0-12-0-13-0-16-0-13-0-12-0-|

-----------------------------------------|

-----------------------------------------|

-----------------------------------------|

-----------------------------------------|







--12-0-0-12-0-0-12-0-14-0-15-0-14-0-12-0-|

-----------------------------------------|

-----------------------------------------|

-----------------------------------------|

-----------------------------------------|

-----------------------------------------|







--12-0-0-12-0-0-12-0-14-0-15-0-14-0-12-0-|-------------------------------------|

-----------------------------------------|--12-0-0-12-0-0-10-0-8-0-7-0-8-0-5-0-|

-----------------------------------------|-------------------------------------|

-----------------------------------------|-------------------------------------|

-----------------------------------------|-------------------------------------|

-----------------------------------------|-------------------------------------|







-----------------------------------------|-----------------------------|

--12-0-0-12-0-0-12-0-13-0-16-0-13-0-12-0-|--7-7-5--8--7--5--8-8-7--10--|

-----------------------------------------|-----------------------------|

-----------------------------------------|-----------------------------|

-----------------------------------------|-----------------------------|

-----------------------------------------|-----------------------------|







----------------------------------|------------------------------------|

--8--7--10-10-8--12--10--8--12-12-|--10--13--12--10--13-13-12--16--13--|

----------------------------------|------------------------------------|

----------------------------------|------------------------------------|

----------------------------------|------------------------------------|

----------------------------------|------------------------------------|







----------12--------------------|------------------|------------------|

--12--16------13--12--13--12~---|------------------|------------------|

--------------------------------|------------------|------------------|

--------------------------------|------------------|------------------|

--------------------------------|------------------|------------------|

--------------------------------|------------------|------------------|



---------------------------------|---------------------------------|

---------------------------------|---------------------------------|

---------------------------------|---------------------------------|

---------------------------------|--4------------------------------|

--2------------------------------|--2--2-2-2-2-2-2-2-2-2-2-2-2-2-2-|

--0--0-0-0-0-0-0-0-0-0-0-0-0-0-0-|---------------------------------|







---------------------------------|---------------------------------|

---------------------------------|---------------------------------|

---------------------------------|---------------------------------|

---------------------------------|--4------------------------------|

--2------------------------------|--2--2-2-2-2-2-2-2-2-2-2-2-2-2-2-|

--0--0-0-0-0-0-0-0-0-0-0-0-0-0-0-|---------------------------------|







---------------------------------|---------------------------------|

---------------------------------|---------------------------------|

---------------------------------|---------------------------------|

---------------------------------|--2------------------------------|

--2------------------------------|--0--0-0-0-0-0-0-0-0-0-0-0-0-0-0-|

--0--0-0-0-0-0-0-0-0-0-0-0-0-0-0-|---------------------------------|







---------------------------------|---------------------------------|---|---|---|

---------------------------------|---------------------------------|---|---|---|

---------------------------------|---------------------------------|---|---|---|

---------------------------------|--4------------------------------|---|---|---|

--2------------------------------|--2--2-2-2-2-2-2-2-2-2-2-2-2-2-2-|---|---|---|

--0--0-0-0-0-0-0-0-0-0-0-0-0-0-0-|---------------------------------|---|---|---|







---|---|----------------------------------|------------------------------|

---|---|----------------------------------|------------------------------|

---|---|----------------------------------|------------------------------|

---|---|----------------------------------|----------------------5---4---|

---|---|----------------------------------|----------------------3---2---|

---|---|--0-0-0-0-0-0-0-0-0-0-0-0-0-0-0-0-|--0-0-0-0-0-0-0-0-0-0---------|







-----------------------------|---------------------------|

-----------------------------|---------------------------|

-----------------------------|---------------------------|

--2--------------------------|------------------4--------|

--0---5---4------------------|------------------2--------|

------3---2--0-0-0-0-0-0-0-0-|--0-0-0-0-0-0-0-0----------|







-------------------------|--------------------------------|

-------------------------|--------------------------------|

-------------------------|--------------------------------|

--2----1h2h1-------------|--------------------------------|

---------------3----2----|--5--------------------------5--|

-------------------------|--3--3-3-3-3-3-3-3-3-3-3-3-3-3--|







------------------------------|----------------------------------|

------------------------------|----------------------------------|

------------------------------|----------------------------------|

-------------------------7----|----------------------------------|

--2----------------------5----|--3-3-3-3-3-3-3-3-3-3-3-3-3-3-3-3-|

--0--0-0-0-0-0-0-0-0-0-0------|----------------------------------|







----------------------|---------------------------------|

----------------------|---------------------------------|

----------------------|---------------------------------|

------------1----4----|---------------------------------|

--2----3--------------|--2------------------------------|

----------------------|--0--0-0-0-0-0-0-0-0-0-0-0-0-0-0-|



http://www.coveralia.com/acordes/la-llama-eterna-avalanch.php





---------------------------------|---------------------------------|

---------------------------------|---------------------------------|

---------------------------------|---------------------------------|

--4------------------------------|---------------------------------|

--2--2-2-2-2-2-2-2-2-2-2-2-2-2-2-|--2------------------------------|

---------------------------------|--0--0-0-0-0-0-0-0-0-0-0-0-0-0-0-|







---------------------------------|------------------------|------------------|

---------------------------------|------------------------|------------------|

---------------------------------|------------------------|------------------|

--4------------------------------|--1--2------------------|------------------|

--2--2-2-2-2-2-2-2-2-2-2-2-2-2-2-|--------3--2--3--2~-----|------------------|

---------------------------------|------------------------|------------------|







----------------------------------|------------------------------|

----------------------------------|------------------------------|

----------------------------------|------------------------------|

----------------------------------|----------------------5---4---|

----------------------------------|----------------------3---2---|

--0-0-0-0-0-0-0-0-0-0-0-0-0-0-0-0-|--0-0-0-0-0-0-0-0-0-0---------|







-----------------------------|---------------------------|

-----------------------------|---------------------------|

-----------------------------|---------------------------|

--2--------------------------|------------------4--------|

--0---5---4------------------|------------------2--------|

------3---2--0-0-0-0-0-0-0-0-|--0-0-0-0-0-0-0-0----------|







-------------------------|--------------------------------|

-------------------------|--------------------------------|

-------------------------|--------------------------------|

--2----1h2h1-------------|--------------------------------|

---------------3----2----|--5--------------------------5--|

-------------------------|--3--3-3-3-3-3-3-3-3-3-3-3-3-3--|







------------------------------|----------------------------------|

------------------------------|----------------------------------|

------------------------------|----------------------------------|

-------------------------7----|----------------------------------|

--2----------------------5----|--3-3-3-3-3-3-3-3-3-3-3-3-3-3-3-3-|

--0--0-0-0-0-0-0-0-0-0-0------|----------------------------------|







----------------------|-------------------------------|------------------------|

----------------------|-------------------------------|------------------------|

----------------------|-------------------------------|------------------------|

------------1----4----|------9------9-----------------|--7---------------------|

--2----3--------------|--7-7-7--7-7-7--7--------------|--5--5-5-5-5-9----------|

----------------------|----------------5--5-5-5-5-5-5-|-------------7----------|







-------------------------------|------------------------|---------------------|

-------------------------------|------------------------|---------------------|

-------------------------------|------------------------|---------------------|

------9------9-----------------|--7---------------------|---------------------|

--7-7-7--7-7-7--7--------------|--5--5-5-5-5-9----------|--9---9---9----------|

----------------5--5-5-5-5-5-5-|-------------7----------|--7---7---7----------|







--------------------------------------|--------------------------------------|

--------------------------------------|--------------------------------------|

--------------------------------------|--------------------------------------|

--------9-9-7-7-9-9-10-10-9-9-7-7-9-9-|--------9-9-7-7-9-9-10-10-9-9-7-7-9-9-|

--10-10-------------------------------|--10-10-------------------------------|

--------------------------------------|--------------------------------------|







-------------------|--------------------------------------|

-------------------|--------------------------------------|

-------------------|--------------------------------------|

--7----------------|--------9-9-7-7-9-9-10-10-9-9-7-7-9-9-|

--5----------------|--10-10-------------------------------|

-------------------|--------------------------------------|







--------------------------------------|-------------------|-------------------|

--------------------------------------|-------------------|-------------------|

--------------------------------------|-------------------|-------------------|

--------9-9-7-7-9-9-10-10-9-9-7-7-9-9-|-------------------|-------------------|

--10-10-------------------------------|--9----------------|--5----------------|

--------------------------------------|--7----------------|--3----------------|







------------------------|---------------------------------|

------------------------|---------------------------------|

------------------------|---------------------------------|

--4----------4----------|---------------------------------|

--2--2-2-2-2-2----------|--2------------------------------|

------------------------|--0--0-0-0-0-0-0-0-0-0-0-0-0-0-0-|







------------------------|-------------------|------------------|

------------------------|-------------------|------------------|

------------------------|-------------------|------------------|

--2----------2----------|--4----------------|------------------|

--0--0-0-0-0-0----------|--2----------------|------------------|

------------------------|-------------------|------------------|







----------------------------------|--------------------------------------|

----------------------------------|--------------------------------------|

----------------------------------|--------------------------------------|

----------------------------------|--------------------------------------|

----------------------------------|--------------------------------------|

--0-0-7-7-7--0-0-8-8-8--0-0-12-12-|--11-11-12-12-8-8-7-7-8-8-7-7-3-3-2-2-|







----------------------------------|--------------------------------------|

----------------------------------|--------------------------------------|

----------------------------------|--------------------------------------|

----------------------------------|--------------------------------------|

----------------------------------|--------------------------------------|

--0-0-7-7-7--0-0-8-8-8--0-0-12-12-|--11-11-12-12-8-8-7-7-8-8-7-7-3-3-2-2-|







----------------------------------|--------------------------------------|

----------------------------------|--------------------------------------|

----------------------------------|--------------------------------------|

----------------------------------|--------------------------------------|

----------------------------------|--------------------------------------|

--0-0-7-7-7--0-0-8-8-8--0-0-12-12-|--11-11-12-12-8-8-7-7-8-8-7-7-3-3-2-2-|







----------------------------------|--------------------------------------|

----------------------------------|--------------------------------------|

----------------------------------|--------------------------------------|

----------------------------------|--------------------------------------|

----------------------------------|--------------------------------------|

--0-0-7-7-7--0-0-8-8-8--0-0-12-12-|--11-11-12-12-8-8-7-7-8-8-7-7-3-3-2-2-|







----------------------------------|--------------------------------------|

----------------------------------|--------------------------------------|

----------------------------------|--------------------------------------|

----------------------------------|--------------------------------------|

----------------------------------|--------------------------------------|

--0-0-7-7-7--0-0-8-8-8--0-0-12-12-|--11-11-12-12-8-8-7-7-8-8-7-7-3-3-2-2-|







----------------------------------|--------------------------------------|

----------------------------------|--------------------------------------|

----------------------------------|--------------------------------------|

----------------------------------|--------------------------------------|

----------------------------------|--------------------------------------|

--0-0-7-7-7--0-0-8-8-8--0-0-12-12-|--11-11-12-12-8-8-7-7-8-8-7-7-3-3-2-2-|







----------------------------------|--------------------------------------|

----------------------------------|--------------------------------------|

----------------------------------|--------------------------------------|

----------------------------------|--------------------------------------|

----------------------------------|--------------------------------------|

--0-0-7-7-7--0-0-8-8-8--0-0-12-12-|--11-11-12-12-8-8-7-7-8-8-7-7-3-3-2-2-|







----------------------------------|--------------------------------------|---|

----------------------------------|--------------------------------------|---|

----------------------------------|--------------------------------------|---|

----------------------------------|--------------------------------------|---|

----------------------------------|--------------------------------------|---|

--0-0-7-7-7--0-0-8-8-8--0-0-12-12-|--11-11-12-12-8-8-7-7-8-8-7-7-3-3-2-2-|---|

Letra subida por: Anónimo

Discos en los que aparece este acorde: La Llama Eterna

El acorde de La Llama Eterna de Avalanch es una versión de la canción original realizada por colaboradores/usuarios de Coveralia.

¿Has encontrado algún error en esta página? Envíanos tu corrección del acorde