música
Buscador

Acorde de La Juventud - Luis Miguel

Letra de La Juventud



INTRO:

G

E------------------------------------------------------------

A------------------------------------------------------------

D------------------------------------------------------------

G----12-9----------------------------------------------------

B-12------12---12-13-12-13-12-13-12--------------------------

e------------------------------------------------------------

Em Am G

E------------------------------------------------------------

A------------------------------------------------------------

D------------------------------------------------------------

G-----------12-----------------------------9-------7---------

B--12-13-12----12-13-12-13-12-13-12----------10-13---8-12----

E------------------------------------------------------------

D

E------------------------------------------------------------

A------------------------------------------------------------

D------------------------------------------------------------

G------------------------------------------------------------

B------------------------------------------------------------

E--10-8-10-8-10---10h12h10h12h10h12--------------------------



ESTROFA 1

G Em

Que han sido tú, es el futuro de este mundo de horror

Am G

El encargado de ponerle color y una canción,

C D

A este cuadro gris de la creación



ESTROFA 2

G Em

Que han sido tu ha de salvar al hombre que ha sido tu

Am G

Este planeta enfermo ya no da mas, tiende a morir

C D

Tú lo salvaras, tú lo salvaras

D7

Cantemos todos porque



CORO

G Em

La juventud viene marchando, y es una gran multitud

Am

Que estas haciendo nada, tú lo cambiaras

C D

Tu lo cambiaras tu lo cambiaras

D7

http://www.coveralia.com/acordes/la-juventud-luis-miguel.php

Cantemos todos porque

G Em

La juventud, es un por siempre, es como un rayo de luz

Am

Es la esperanza quieta, de la libertad

C D

Tú lo cambiaras, tú lo cambiaras



ESTROFA 1

G Em

Que han sido tú, es el futuro de este mundo de horror

Am G

El encargado de ponerle color y una canción,

C D

A este cuadro gris de la creación



ESTROFA 2

G Em

Que han sido tu ha de salvar al hombre que ha sido tu

Am G

Este planeta enfermo ya no da mas, tiende a morir

C D

Tú lo salvaras, tú lo salvaras

D7

Cantemos todos porque



CORO

G Em

La juventud viene marchando, y es una gran multitud

Am

Que estas haciendo nada, tú lo cambiaras

C D

Tu lo cambiaras tu lo cambiaras

D7

Cantemos todos porque

G Em

La juventud, es un por siempre, es como un rayo de luz

Am

Es la esperanza quieta, de la libertad

C D

Tú lo cambiaras, tú lo cambiaras

D7

Cantemos todos porque

G Em

La juventud viene marchando, y es una gran multitud

C D7

Que estas haciendo nada, la juventud, la juventud



Letra subida por: Anónimo

El acorde de La Juventud de Luis Miguel es una versión de la canción original realizada por colaboradores/usuarios de Coveralia.

¿Has encontrado algún error en esta página? Envíanos tu corrección del acorde