música
Buscador

Acorde de La Hoguera - Extremoduro

Letra de La Hoguera



D D A A#

e:-------------------------------------------------------------------|

B:--3--------------------------3-------------------------------------|

G:--2-----3--------------------2--3--------------------2--3----0---2-|

D:--0--0-----0--3--0--2--0-----0-----0--3--0--2--0-----2--3----0---2-|

A:--------------------------0-----------------------0--0--1----0---0-|

E:-------------------------------------------------------------------|



D C D F A# G D

e:-------------------------------------------------------------|

B:-------------------------------------------------------------|

G:-------------------------------------------------------------|

D:-------------------------------------------------------------|

A:-------------------------------------------------------------|

E:-------------------------------------------------------------|

Siempre..... Voy por..... Cada mañana comienzo...



B D C D

e:-----------------|-------------------------------|

B:-----------------|-------------------------------|

G:--7-5---5--------|-------------------------------|

D:------7---7-5----|-------------------------------|

A:--------------8--|-------------------------------|

E:-----------------|-------------------------------|

Y tu que ... ya estas...





http://www.coveralia.com/acordes/la-hoguera-extremoduro.php



A# G A D A G F G

e:----------------------------|-------------------------------------------|

B:----------------------------|-------------------------------------------|

G:----------------------------|-------------------------------------------|

D:----------------------------|-------------------------------------------|

A:----------------------------|-------------------------------------------|

E:----------------------------|-------------------------------------------|

Mas que enterrado en vida Tu en tu casa Nosotros en la hoguera









e:--------------------------------------------|

B:---)-----------5----------------------------|

G:--7----5-7-----5----------------------------|

D:-----------7-7---5-5-7----------------------|

A:-----------------------5-5-7-5-7-8-7-5---5--|

E:---------------------------------------8----|



A-PM

e:-------------------------------------------|-------|

B:---)----------5----------------------------|-------|

G:--7---5-7-----5-----------------------5-7--|-------|

D:----------7-7---5-5-7-------------5-7------|--7----|

A:----------------------5-5-7-5-7-8----------|--7----|

E:-------------------------------------------|--5----|

Letra subida por: Anónimo

Discos en los que aparece este acorde: Rock Transgresivo , La Hoguera , Rock Transgresivo (1989)

El acorde de La Hoguera de Extremoduro es una versión de la canción original realizada por colaboradores/usuarios de Coveralia.

¿Has encontrado algún error en esta página? Envíanos tu corrección del acorde