música
Buscador

Acorde de La Espada Sagrada - Riff

Intro:

e|---------------------------------------------------------------------------------------------------|X2

b|---------------------------------------------------------------------------------------------------|

g|--2--------------------------2---------------------------------------------------------------------|

d|--2--------------------------2--------------------3-----------------------5------------------------|

a|--0----0--0--0--0--0--0--0---0----0--0--0--0--0---3-----------------------5--------------7-5^7^5^0-|

e|--------------------------------------------------1----1--1--1--1--1--1---3----3--3----------------|



e|----------------------------------------------------------------------------------------------|

b|----------------------------------------------------------------------------------------------|

g|------------------------------------7/(9)--7----7--------------------------12/(14)--12/(14)~~-|

d|--7~--7-9-10--7~-7-9-10--7~--7-9-10----------10------10-9--7~--7-9-10-7~\---------------------|

a|----------------------------------------------------------------------------------------------|

e|----------------------------------------------------------------------------------------------|



INTRO COMO BASE EN CASI TODO EL TEMA



Bautizar a un niño

en el nombre de Dios

descubre que tienen

un ser superior



(Acá repite la última frase de la base F y G, después le agrega Am y repite esta parte una vez)



Los bastones ardientes;

un don especial

que biene a salvar

nuestro mundo.



e |--------------------------+----------------------------| X2

b |--------------------------+----------------------------|

g |--2------2-/7--2--5--5/7~-+--2------2------2--------2~-|

d |--2------2-/7--2--5--5/7~-+--2------2------2--------2~-|

a |--0-3^0--0-/5--0--3--3/5~-+--0-3^0--0-5^0--0-3^0--0-0~-|

e |--------------------------+----------------------------|



entonces comunican

a la humanidad

la noticia se expande

por todo el lugar



Después de medianoche

se escucho la información

entonces prepara

su fuga





SOLO GUITARRA



Sabia que algún día

el mundo iba a estallar

Que culminaria en una destrucción total



Su espada sagrada

brilló una vez más

dispuesta a dar su vida

por mi



FINAL:



http://www.coveralia.com/acordes/la-espada-sagrada-riff.php

e |--------------------------+----------------------------| X4

b |--------------------------+----------------------------|

g |--2------2-/7--2--5--5/7~-+--2------2------2--------2~-|

d |--2------2-/7--2--5--5/7~-+--2------2------2--------2~-|

a |--0-3^0--0-/5--0--3--3/5~-+--0-3^0--0-5^0--0-3^0--0-0~-|

e |--------------------------+----------------------------|



e |--------------| Tres veces y A5 al final.

b |--------------|

g |--2--------2--|

d |--2--------2--|

a |--0--3--0--0--|

e |--------------|







SOLO GUITARRA:

(primero esto una vez)

e |--------------------------+----------------------------|

b |--------------------------+----------------------------|

g |--2------2-/7--2--5--5/7~-+--2------2------2--------2~-|

d |--2------2-/7--2--5--5/7~-+--2------2------2--------2~-|

a |--0-3^0--0-/5--0--3--3/5~-+--0-3^0--0-5^0--0-3^0--0-0~-|

e |--------------------------+----------------------------|



e |---------------------------------------------14----13--------13--------12----11-------11-\--|

b |------------------------------------------14--------------13--------12-------------11----\--|

g |---------------------------------------12-------12-----11--------10-------10-----9-------\--|

d |---------------7----------\---------\-------------------------------------------------------|

a |---7-8-7~--7-8----10-8-7~-\--7-8-7--\-------------------------------------------------------|

e |--------------------------\---------\-------------------------------------------------------|



e |----------------------------------------------------------------------12-------------------------|

b |--------------------------------------------------12--15^12--------------15^12----------12-15^12-|

g |------------------------12-14-12~-----12--14/(16)------------14/(16)------------14/(16)----------|

d |--14~-14~--14^12-14-14~-----------14-------------------------------------------------------------|

a |-------------------------------------------------------------------------------------------------|

e |-------------------------------------------------------------------------------------------------|



e |---------------------------------------------------------------------------------------|

b |----------12-15/(17)~~--15/(17)-15-12--------------------------------------------------|

g |--14/(16)-----------------------------14/(16)-14/(16)\14^12----12----------------------|

d |------------------------------------------------------------14-------------------------|

a |---------------------------------------------------------------------------------------|

e |---------------------------------------------------------------------------------------|



e |----------------------------------12---------------------------------------------------------|

b |-------------------------------------15^12---------------------------------------------------|

g |--------------------12-14-14/(16)----------14-14/(16)\14----12~------11/(12)-9---------------|

d |---------------------------------------------------------14--------------------12-12/14~-12\-|

a |---------------------------------------------------------------------------------------------|

e |---------------------------------------------------------------------------------------------|



e |--------------------------------------------------------------------------15/(17)-%-%~--17/(19)~~-|

b |--10~--10-12/13-10~--10-12/13-10~--10-12-13--15/(17)-15--13-15-13-12-10~--------------------------|

g |--------------------------------------------------------------------------------------------------|

d |--------------------------------------------------------------------------------------------------|

a |--------------------------------------------------------------------------------------------------|

e |--------------------------------------------------------------------------------------------------|

Letra subida por: Anónimo

Discos en los que aparece este acorde: En Vivo En Obras 17/12/1985 , En Vivo En Obras 17/12/1985 , VII

El acorde de La Espada Sagrada de Riff es una versión de la canción original realizada por colaboradores/usuarios de Coveralia.

¿Has encontrado algún error en esta página? Envíanos tu corrección del acorde