música
Buscador

Acorde de La Dama Del Lago - Riff

Tema muy bueno de Riff del segundo disco de la banda liderada por

Pappo, de su mejor epoca. Esta transcripto de su version en vivo

(para mi mejor que la de estudio). Es bastante facil de tocar.



x4 x1

G|-------------------------| “Algo de distancia|-------------------------|

D|-------------------------| y una fuerte luz |-------------------------|

A|---3--5--3-3----3--5--3--| me impiden ver |---3--5--3-3----3--5--3--|

E|-55-55-55-5-5-55-55-55-5-| a la dama azul” |-55-55-55-5-5-55-55-55-5-|



x1 “y yo estoy demente, se rie de

“Un Apocalipsis G|-------------------------|-----------------------------

comenzara, seria D|-------------------------|-3----------3--5--3-----3----

conveniente no A|---3--5--3-3----3--5--3--|--5-33-5--55-55-55-5---5-5-33

participar” E|-55-55-55-5-5-55-55-55-5-|-----------------------------



la gente” x2

G|--------------|-------------------------| “Vuela como el viento

D|-----3--5--3--|-------------------------| siempre se va, seria

A|5--55-55-55-5-|---3--5--3-3----3--5--3--| aconsejable no

E|--------------|-55-55-55-5-5-55-55-55-5-| llevarla detrás”



x1

G|-------------------------| “El resto de la tierra

D|-------------------------| que quedo en pie

A|---3--5--3-3----3--5--3--| se mira y se pregunta

E|-55-55-55-5-5-55-55-55-5-| como puede ser!!”



x1

G|-------------------------|

D|-------------------------|

A|---3--5--3-3----3--5--3--|

E|-55-55-55-5-5-55-55-55-5-|



“y yo estoy demente, se rie de la gente” x2

G|------------------------------------------|-------------------------|

D|-3----------3--5--3----3---------3--5--3--|-------------------------|

A|--5-33-5--55-55-55-5--5-5-33-5-55-55-55-5-|---3--5--3-3----3--5--3--|

E|------------------------------------------|-55-55-55-5-5-55-55-55-5-|



x2 x2

G|-----------------------------|-------------------------|

D|-----------------------------|-------------------------|

A|-----------------------------|---3--5--3-3----3--5--3--|

E|-003-005-003030-003-005-0030-|-55-55-55-5-5-55-55-55-5-|



x2 x2

G|-----------------------------|-------------------------|

D|-----------------------------|-------------------------|

A|-----------------------------|---3--5--3-3----3--5--3--|

E|-003-005-003030-003-005-0030-|-55-55-55-5-5-55-55-55-5-|



x3 x5

G|---------------------------------|-----------------------------|

D|---------------------------------|-----------------------------|

A|-7-77777-7-77777-7-77777-7-77777-|-7-77777-7-77777-7-7777777---|

E|---------------------------------|--------------------------5-3|



X2

G|-------------------------| “Vuela como el viento

D|-------------------------| siempre se va, seria

A|---3--5--3-3----3--5--3--| aconsejable no

http://www.coveralia.com/acordes/la-dama-del-lago-riff.php

E|-55-55-55-5-5-55-55-55-5-| llevarla detras”



X1

G|-------------------------|

D|-------------------------|

A|---3--5--3-3----3--5--3--|

E|-55-55-55-5-5-55-55-55-5-|



x1

“El resto de la tierra G|-------------------------|

que quedo en pie D|-------------------------|

se mira y se pregunta A|---3--5--3-3----3--5--3--|

como puede ser!!” E|-55-55-55-5-5-55-55-55-5-|



“y yo estoy demente, y se rie de la gente…

G|---------------------------------------------|

D|-3----------3--5--3-------3---------3--5--3--|

A|--5-33-5--55-55-55-5-----5-5-33-5-55-55-55-5-|

E|---------------------------------------------|



…y la dama sonrie y se convierte en un duende azul" x2

G|---------------------------------------------|-------------------------|

D|-3---------3--5--3------3----------3--5--3---|-------------------------|

A|5-5-33-5-55-55-55-5----5-5-33-55-55-55-55-5--|---3--5--3-3----3--5--3--|

E|---------------------------------------------|-55-55-55-5-5-55-55-55-5-|



x4

G|-----------------------------|--------------------------------------|

D|-----------------------------|--------------------------------------|

A|-----------------------------|-0-0-0-0-0-0-0-0-0-0-0-0-0-0-0-0-0-00-|

E|-003-005-003030-003-005-0030-|--------------------------------------|



La dama Del lago (Riff)



Algo de distancia y una fuerte luz

me impiden ver a la dama azul

un apocalipsis comenzara

seria conveniente no participar



Y yo estoy demente,

y se rie la gente



vuela como el viento, siempre se va

seria aconsejable no llevarla detras

el resto de la tierra que quedo en pie

se mira y se pregunta, ¡como puede ser!



y yo estoy demente

y se rie la gente



vuela como el viento, siempre se va

seria aconsejable no llevarla detras

el resto de la tierra que quedo en pie

se mira y se pregunta, ¡como puede ser!



y yo estoy demente

y se rie la gente

y la dama sonrie

y se convierte en un duende azul



Letra subida por: Anónimo

Discos en los que aparece este acorde: Madacam 3...2...1...0... , En Accion , Clasico

El acorde de La Dama Del Lago de Riff es una versión de la canción original realizada por colaboradores/usuarios de Coveralia.

¿Has encontrado algún error en esta página? Envíanos tu corrección del acorde