música
Buscador

Acorde de La Chispa Adecuada - Heroes Del Silencio

Letra de La Chispa Adecuada

 	      Dm                       Am            Bb        F       C 

e| ------------------------------------------------------------------

B| --------------6---5------------5h6--5----------------1-1-1--------

G|-------------------5-----------------5----------3-----------------

D|---------0--0---0---------0---------------------------------------

A| ---3-3h5----------------0---0------------0-1--1----1---3---1s3----

E| ------------------------------------------------------------------



Dm Am Bb

e|-----------------------------5------------------------------------ |

B|--------------6---5-----------5-------------3------3-------------- |

G|-------------------5-----------5----------------3--3--------------|

D|---------0--0---0---------0---------------------------------------|

A|---3-3h5----------------0-----------0-1--1----1----1--1s3--------- |

E|------------------------------------------------------------------ |

Repeat x3

Dm Am Bb F C

e|-----------------------------------------------------------------------

B|--------------6---5------------5h6--5----------------1-1-1-------------

G|-------------------5-----------------5----------3----------------------

D|---------0--0---0---------0--------------------------------------------

A|---3-3h5----------------0---0------------0-1--1----1---3---1s3---------

E|-----------------------------------------------------------------------



Dm Am Bb F

e|-----------------------------5--------------------------0--------------- |

B|--------------6---5-----------5-------------3------3--0---6-5s3--------- |

G|-------------------5-----------5----------------3--3------------2------- |

D|---------0--0---0---------0---------------------------------------3-0--- |

A|---3-3h5----------------0-----------0-1--1----1----1-------------------- |

E|------------------------------------------------------------------------ |





Dm Am Bb

Las palabras fueron avispas

F C Dm

y las calles como dunas

Am Bb F C

cuando aun te espero llegar...

Dm Am Bb

en un ataud guardo tu tacto y

F

una corona

C Dm

con tu pelo enmaraado

Am

queriendo encontrar un

Bb Dm

arco-iris infinito



D F#m7 G A D F#m7 G A



Dm Am Bb

mis manos que aun son de hueso

C Dm

y tu vientre sabe a pan

Am Bb F C Dm

la catedral es tu cuerpo...

Dm Bb

http://www.coveralia.com/acordes/la-chispa-adecuada-heroes-del-silencio.php

eras verano y mil tormentas yo

C

el leon

Dm

que sonrie a las paredes

Am

que he vuelto a pintar del

Bb F

mismo color







D F#m G

no se distinguir entre besos y

A

raices

D F#m G

no se distinguir lo complicado

A

de lo simple

D F#m

y ahora estas en mi lista de

G A

promesas a olvidar

D F#m

todo arde si le aplicas la chispa

G A

adecuada



Dm Bb C Dm C Bb C

Dm Bb C Dm C Bb C



Dm Am Bb

el fuego que era a veces propio

C Dm

la ceniza siempre ajena

Am Bb

blanca esperma resbalando por

F C

la espina dorsal

Dm Am Bb

ya somos mas viejos y sinceros,

C

y que m s da

Dm

si miramos la "laguna"

Am Bb

como llaman a la eternidad

F

de la ausencia





(Rock)



Dm Bb C

Dm C Bb C

Dm Bb C

Dm C Bb C Dm

Letra subida por: Anónimo

El acorde de La Chispa Adecuada de Heroes Del Silencio es una versión de la canción original realizada por colaboradores/usuarios de Coveralia.

¿Has encontrado algún error en esta página? Envíanos tu corrección del acorde