música
Buscador

Acorde de La Canción Del Linyera - Pate De Fua



CUERDAS: 6 5 4 3 2 1

ACORDES:

Dm: 5 5 7 7 6 5 - Re menor

A7: 5 7 5 6 5 5 - La siete

C: 3 3 2 0 1 0 - Do

F: 1 3 3 2 1 1 - Fa

Bb7: x 1 3 1 3 1 - Si Bemol siete o La Sostenido siete (A#7)

Gm: 3 5 5 3 3 3 - Sol menor







e|----------------------------------------|

B|----------------------------------------|

G|----------------------------------------|

D|--3---5-7-3---5-7-3---5-7-3---5-8-7-----|

A|----------------------------------------|

E|----------------------------------------|





Dm A7 Dm

e|-----1--5-4-5-4-5-4-5-4-5-----------------------5--4-5-5-----|

B|---3----------------------6-5-3----3-5-6-5---------------3---|

G|-2-----------------------------------------2-----------------|

D|-------------------------------------------------------------|

A|-------------------------------------------------------------|

E|-------------------------------------------------------------|





Dm C F

e|-----------1--5-4-5-4-5-4-5-4-5-----------------------5--4-5-5-----|

B|---------3----------------------6-5-3----3-5-6-5---------------6---|

G|-------2-----------------------------------------5-----------(5)---|

D|-------------------------------------------------------------------|

A|-------------------------------------------------------------------|

E|-------------------------------------------------------------------|





F C F C

e|-----------5--8-7-8-7-8-7-8-7-8------------5-6-5---------5-6-8-----|

B|---------6----------------------8----8---8-------6----8--------8---|

G|-------5--------------------------10-------------------------------|

D|-------------------------------------------------------------------|

A|-------------------------------------------------------------------|

E|-------------------------------------------------------------------|





F C Dm A7

e|-----5--8-7-8-7-8---7-8-7-8------------5-6-5--------------------|

B|---6------------------------8----8---8-------6----6--8-9-10/5---|

G|-5----------------------------10--------------------------------|

D|----------------------------------------------------------------|

A|----------------------------------------------------------------|

E|----------------------------------------------------------------|



*Esta parte puede ser muy confusa,

solo escuchen la canción con atención

Dm A7

e|-----1--5----4-5-4-5---4-5-6-5-4-5/1------------------------|

B|---3---------------------------------3-6-6-5---6--3-3-5/2-2-|

G|-2----------------------------------------------------------|

D|------------------------------------------------------------|

A|------------------------------------------------------------|

E|------------------------------------------------------------|



Dm

e|----------------|

B|--10--8-8-10--6-|

G|----------------|

D|----------------|

A|----------------|

E|----------------|





A7 Dm Bb7 A7

e|------------------------------------------|

B|----2-3-5--3-5-6--5-6-8-10-11-8-10--------|

G|------------------------------------------|

D|------------------------------------------|

A|------------------(Contra-Bajo)-0---------|

E|----------------------------------3-1-0---|





Dm

e|---1---3-5-1---3-5-1---3-5-5-3-1-5-------------|

B|-----------------------------------------------|

G|-----------------------------------------------|

D|-----------------------------------------------|

A|-----------------------(Contra-Bajo)-5---------|

E|---------------------------------------8-7-5---|





Gm Dm

e|---6---8-10-6---8-10-6---8-10-10-8-6-5---|

B|-----------------------------------------|

G|-----------------------------------------|

D|-----------------------------------------|

A|-----------------------------------------|

E|-----------------------------------------|



http://www.coveralia.com/acordes/la-cancion-del-linyera-pate-de-fua.php



Dm

e|---1---3-5-1---3-5-1---3-5-5-3-1-5---|

B|-------------------------------------|

G|-------------------------------------|

D|-------------------------------------|

A|-------------------------------------|

E|-------------------------------------|





Gm Dm A7 Dm

e|---7-10-7-10--10---7-10-7-10---10-9-9-9---7-9-10---|

B|---------------------------------------------------|

G|---------------------------------------------------|

D|---------------------------------------------------|

A|---------------------------------------------------|

E|---------------------------------------------------|





Dm

Cuando se asoma alegre el sol



sobre los campos del talar

A7 Dm

junto a la vía, van los Linyeras

Dm

llevando como el caracol



la casa a cuesta y el azar

C F

van los Gitanos, todos los días



F

Ellos no saben del dolor

C

y en cada boca hay un cantar

F C

y a gritos dicen sus alegrías

F

indiferentes al amor

C (E|-3-)-Bajo

y en el externo trajinar

Dm (A|-0-)-Bajo A7

ellos desechan melancolía



Dm

Cuando se asoma alegre el sol



sobre los campos del talar

A7 Dm

van los Linyeras, todos los días

A7 Dm

y al pasar se oye un peón

Bb7 A7

entonar esta canción



Dm

Linyera soy, corro al mundo y no se a donde voy

Gm Dm

Linyera soy, lo que gano lo gasto o lo doy

Dm

No se llorar y en la vida deseo triunfar

Gm Dm

no tengo norte, no tengo guia

A7 Dm

para mi todo es igual





*Les debo el solo de Trompeta

--Aquí son los acordes de las primeras tres estrofas

con el mismo compas (solo imaginen la letra y si queda)

solo que con rasgueo hacia abajo



Dm Dm

A7 Dm

Dm Dm

C F

F C

F C

F C

Dm A7

Dm Dm

A7 Dm

A7-Dm-Bb7-A7





Dm

Linyera soy, corro al mundo y no se a donde voy

Gm Dm

Linyera soy, lo que gano lo gasto o lo doy

Dm

No se llorar y en la vida deseo triunfar

Gm Dm

no tengo norte, no tengo guía

A7 Dm

para mí todo es igual



Dm A7 Dm

Letra subida por: Anónimo

Discos en los que aparece este acorde: Musica Moderna

El acorde de La Canción Del Linyera de Pate De Fua es una versión de la canción original realizada por colaboradores/usuarios de Coveralia.

¿Has encontrado algún error en esta página? Envíanos tu corrección del acorde