música
Buscador

Acorde de Kick In The Teeth - Papa Roach

Letra de Kick In The Teeth

We live in a cold dark world, 

With venom in it's fangs.

You can spit it in my face,

But I know I'll be okay.



E|---------|--------|--------|

B|---------|--------|--------|

G|---------|--------|--------|

D|777777777|33333333|55555555|

A|777777777|33333333|55555555|

D|777777777|33333333|55555555|

( A5 ) ( F5 ) ( G5 )



(Toque esta parte com acordes abafados)



A5

It's on the attack. It's a war, It's a game.

F5

A ball and chain. Chew my arm off to get away

G5

Don't fight, or it deny it.. invite it!



(Refrão 1)

E|------------------------------------------------------|

B|------------------------------------------------------|

G|-----------7777777777---------------------------------|

D|7777777777-7777777777-0-2-3333333333-22222-333--555--7|

A|7777777777-5555555555-0-2-3333333333-22222-333--555--7|

D|7777777777-0000000000-0-2-3333333333-22222-333--555--7|

(A5) (D5) (F5) (E5) (F5) (G5) (A5)



(Refrão 2)

e|xxxxxxxxxx---xxxxxxxxxx--|

B|xxxxxxxxxx---xxxxxxxxxx--|

G|xxxxxxxxxx---xxxxxxxxxx--|

D|xxxxxxxxxx-7-xxxxxxxxxx-7|

A|xxxxxxxxxx-7-xxxxxxxxxx-7|

D|xxxxxxxxxx-7-xxxxxxxxxx-7|

*é isso mesmo, apenas palhete no ritmo da musica sem tocar em nenhuma casa, abafado.



(Refrão 1)

G5 A5 D5

'Cuz when it feels like a kick in the teeth, I can take it.

E5 F5

Throw your stones and you won't see me break it.

F5

Say what you want, take your shots.

E5 F5 G5 A5

You're setting me free with one more kick in the.. TEETH



(Refrão 2)

(nana na na na na)

A5

Kick in the.. TEETH (nana na na na na)



(toque abafado)

A5

I gotta say thanks 'cuz you kick me when I'm down.

A5

I'm bleeding out the mouth.

F5

I hope you know I'm stronger now

A5

I'm taking the hate, I'm turning it all around.

http://www.coveralia.com/acordes/kick-in-the-teeth-papa-roach.php

A5 F5

I won't go down 'til im six feet underground.

G5

Don't fight, or it deny it.. invite it!



(Refrão 1)

G5 A5 D5

'Cuz when it feels like a kick in the teeth, I can take it.

E5 F5

Throw your stones and you won't see me break it.

F5

Say what you want, take your shots.

E5 F5 G5 A5

You're setting me free with one more kick in the.. TEETH



(Refrão 2)

(nana na na na na)

A5

Kick in the.. TEETH (nana na na na na)



(abafado)

A5

What doesn't kill me only,

F5 D5 F5 G5

Will make me stronger in my head, in my heeeeeeeeeeeeeeead



(solo)

E|8--7----------| |-----------------------------------------------------------------------|

B|------10---8--| |10(p)8---10-10-10-10-10-10-10-10-10-10(p)8---10/12-12-12-12-12-12-12-12|

G|-9--9----9---9| |-------9-----------------------------------9---------------------------|

D|--------------| (2x) |-----------------------------------------------------------------------|

A|--------------| |-----------------------------------------------------------------------|

D|--------------| |-----------------------------------------------------------------------|



E|---------------------------------------------------------------------------------------------|

B|12/13/12-12-12-10-8-10-10-10-10-10--12-12-12-12-12--13-13-13-13-13--15-15-15-15-15-----------|

G|---------------------------------------------------------------------------------------------|

D|------------------------------------------------------------------------------------7--------|

A|------------------------------------------------------------------------------------7--------|

D|------------------------------------------------------------------------------------7--------|



'Cuz when it feels like a kick in the teeth, I can take it.

Throw your stones and you won't see me break it.

Say what you want, take your shots..

A5

You're setting me free with one more kick in the.. TEETH



A5

(nana na na na na )

D5

Kick in the.. TEETH

D5 E5 F5

(nana na na na na)

F5

Say what you want. Take your shots.

E5 F5 G5 A5

You're setting me free with one more kick in the.. TEETH

(nana na na na na)

A5

Kick in the.. TEETH (nana na na na na)(3x)



( A5 A5 )

Letra subida por: Anónimo

El acorde de Kick In The Teeth de Papa Roach es una versión de la canción original realizada por colaboradores/usuarios de Coveralia.

¿Has encontrado algún error en esta página? Envíanos tu corrección del acorde