música
Buscador

Acorde de Kalashnikov - Airbag

Letra de Kalashnikov

Primeros dos versos



|--------------------------|

|--------------------------|

|--------------------------|

|--------5--------5--------|

|--7--7-----7--7-----7--5--|

|--------------------------|



--------------------------|

--------------------------|

--------------------------|

--------------------------|

--------5--------5--------|

--7--7-----7--7-----7--6--|



--------------------------|

--------------------------|

--------------------------|

--------------------------|

--------------------------|

--5--5--8--5--5--8--5--6--|



--------------------------|

--------------------------|

--------------------------|

--------------------------|

--------5--------5-----5--|

--7--7-----7--7-----7-----|



--------------------------|

--------------------------|

--------------------------|

--------5--------5--------|

--7--7-----7--7-----7--5--|

--------------------------|



--------------------------|

--------------------------|

--------------------------|

--------------------------|

--------5--------5--------|

--7--7-----7--7-----7--6--|



--------------------------|

--------------------------|

--------------------------|

--------------------------|

--------------------------|

--5--5--8--5--5--8--5--6--|



--------------------------|

--------------------------|

--------------------------|

--------------------------|

--------5--------5-----5--|

--7--7-----7--7-----7-----|





Em Bm Am Bm

Mientras bailas tu vida se juega al azar,

Em Bm Am Bm

entra a disparar un muchacho con kalashnikov,

C Bm Em

moverse, moverse cuestión de vida o muerte

C D Em

bailando en esta ciudad





C Am Em Bm

y empece a gritar tu nombre,

C Am Em Bm

y sentí las balas pasar,

C Am Em Bm

te busque y te vi con el fuego del fusil,

C D

pero hoy no es mi día.



Em, C x3

Bm



Primeros dos versos



--------------------------|

--------------------------|

--------------------------|

--------5--------5--------|

--7--7-----7--7-----7--5--|

--------------------------|



--------------------------|

--------------------------|

--------------------------|

--------------------------|

--------5--------5--------|

--7--7-----7--7-----7--6--|



--------------------------|

--------------------------|

--------------------------|

--------------------------|

--------------------------|

--5--5--8--5--5--8--5--6--|



--------------------------|

--------------------------|

--------------------------|

--------------------------|

--------5--------5-----5--|

--7--7-----7--7-----7-----|



--------------------------|

--------------------------|

--------------------------|

--------5--------5--------|

--7--7-----7--7-----7--5--|

--------------------------|



--------------------------|

--------------------------|

--------------------------|

--------------------------|

--------5--------5--------|

--7--7-----7--7-----7--6--|



--------------------------|

--------------------------|

--------------------------|

--------------------------|

-----------------------2--|

--5--5--8--5-----8--------|



----------------------|

----------------------|

----------------------|

----------------------|

-----3----2-----------|

----------------------|





http://www.coveralia.com/acordes/kalashnikov-airbag.php

Em Bm Am Bm

te fui a buscar y el muchacho empieza a disparar,

Em Bm Am Bm C Bm

no puedo pensar al ritmo del shoot shoot bang bang bang

C Bm Em

la gente enloquece, el animal prevalece,

C D Em

la música suena igual.



C Am Em Bm

y empece a gritar tu nombre,

C Am Em Bm

y sentí las balas pasar,

C Am Em Bm

te busque y te vi con el fuego del fusil,

C D

pero hoy no es mi día.





C D Bm Em A Bm C D Em

hoy no fue mi día.



C Am Em G x2 ( antes del solo )





Solo:





--15-12----12-15-12-15-12----12-15-12-15-12--

--------13----------------13----------------13

---------------------------------------------

---------------------------------------------

---------------------------------------------

---------------------------------------------



--17-12----12-17-12-17-12----12-17-12-17-12--

--------13----------------13----------------13

---------------------------------------------

---------------------------------------------

---------------------------------------------

---------------------------------------------



--15-12----12-15-12-15-12----12-15-12-15-12--

--------12----------------12----------------12

---------------------------------------------

---------------------------------------------

---------------------------------------------

---------------------------------------------



--19-15----15-19-15-19-15----15-19-15-19-15--

--------15----------------15----------------15

---------------------------------------------

---------------------------------------------

---------------------------------------------

---------------------------------------------



--20-15----15-20-15-20-15----15-20-15-20-15--

--------17----------------17----------------17

---------------------------------------------

---------------------------------------------

---------------------------------------------

---------------------------------------------



--20-17----17-20-17-20-17----17-20-17-20-17--

--------17----------------17----------------17

---------------------------------------------

---------------------------------------------

---------------------------------------------

---------------------------------------------



--19-15----15-19-15-19-15----15-19-15-19-15--

--------17----------------17----------------17

---------------------------------------------

---------------------------------------------

---------------------------------------------

---------------------------------------------



--19-15----15-19-15-19-15----15-19-15-19-15--

--------15----------------15----------------15

---------------------------------------------

---------------------------------------------

---------------------------------------------

---------------------------------------------



C Am Em Bm x2



C Am Em Bm

te busque y te vi con e fuego del fusil,

C D

no hay salida...



Em, C x3

Bm, Em





Sobre la ultima estrofa:



--15-12----12-15-12-15-12----12-15-12-15-12--

--------13----------------13----------------13

---------------------------------------------

---------------------------------------------

---------------------------------------------

---------------------------------------------



--17-12----12-17-12-17-12----12-17-12-17-12--

--------13----------------13----------------13

---------------------------------------------

---------------------------------------------

---------------------------------------------

---------------------------------------------



--15-12----12-15-12-15-12----12-15-12-15-12--

--------12----------------12----------------12

---------------------------------------------

---------------------------------------------

---------------------------------------------

---------------------------------------------



--19-15----15-19-15-19-15----15-19-15-19-15--

--------15----------------15----------------15

---------------------------------------------

---------------------------------------------

---------------------------------------------

---------------------------------------------





--20-15----15-20-15-20-15----15-20-15-20-15--

--------17----------------17----------------17

---------------------------------------------

---------------------------------------------

---------------------------------------------

---------------------------------------------



--17-14----14-17-14-17-14----14-17-14-17-14--

--------15----------------15----------------15

---------------------------------------------

---------------------------------------------

---------------------------------------------

---------------------------------------------

Letra subida por: Anónimo

Discos en los que aparece este acorde: Libertad

El acorde de Kalashnikov de Airbag es una versión de la canción original realizada por colaboradores/usuarios de Coveralia.

¿Has encontrado algún error en esta página? Envíanos tu corrección del acorde