música
Buscador

Acorde de Juke Box Hero - Foreigner

Letra de Juke Box Hero

Tuning: Standard  

Verse 1:



Standin'in the rain, with his head hung low



Couldn't get a ticket, it was a sold out show



Heard the roar of the crowd, he could picture the scene



Put his ear to the wall, and like a distant scream

E D

He heard one guitar, just blew him away

E D

Saw stars in his eyes, and the very next day



Verse 2:



Bought a beat up six-string in a second hand store



Didn't know how to play it, but he knew for sure

E D

That that one guitar felt good in his hands

E D

Didn't take long to understand

E D

Just one guitar, slung way down low

E D

Was a one way ticket, only one way to go

E-------------------

B-------------------

G-4-4---4-4-4-4-4-4-

D-4-4---4-4-4-4-4-4-

A-0-0h2-2-2-2-2-2-2-

E-------------------



So he started rockin', ain't never gonna stop

Gotta keep on rockin', someday he's gonna make it to the top



Chorus:

E G D E

E-0---3---|-2---0---

B-0---3---|-3---0---

G-1---0---|-2---1---

D-2---0---|-0---2---

A-2---2---|-----2---

E-0---3---|-----0---



E-0-0-0---|-0-0-0---|-0-0-0---|-0-0-0---

B---------|---------|---------|---------

G---------|---------|---------|---------

D---------|---------|---------|---------

A---------|---------|---------|---------

E---------|---------|---------|---------



E---------------|------------

B---------------|------------

G---------------|------------

D-5h7p5p4-------|----4-5-4---

A---------7-5---|--7---------

E-------------0-|----------0-



Chorus: And be a juke box hero (got stars in his eyes)

He's a juke box hero

He took one guitar (saw stars in his eyes)

Juke box hero, he'll come alive tonight







P.M.

http://www.coveralia.com/acordes/juke-box-hero-foreigner.php

E-----------------

B-----------------

G-----------------

D-----------------

A-----------------

E-0-0-0-0-0-0-0-0-



Verse 3:



In a town without a name, in a heavy downpour



Thought he passed his own shadow by the backstage door

E D

Like a trip thorugh the past, that day in the rain

E D

That one guitar made his whole life change



Pre-Chorus



Play Chorus



P.M......

E-----------------2-2---

B-----------------3-3---

G-----------------2-2---

D-----2-----------0-0---

A-0h2-------------------

E-------0-0-0-0-0-------



Bridge



1st Guitar Solo

E-------------|-0------------------0-|--------------------------

B-0-0---0-0---|------------------3---|--------------------------

G-0-0---0-0---|---2-0---2-0---/4-----|--------------------------

D-----2-----2-|-------2-----2--------|-----2p0---5p0---7p0---12-

A-------------|----------------------|--------------------------

E-------------|----------------------|-0-0-----0-----0-----0----



2nd Guitar Solo

E-AH----AH----AH----|-16p14p12-14p12----12----------------

B-13b---13b---13b---|----------------15----14-15-12-14----

G-------------------|----------------------------------14-

D-------------------|-------------------------------------

A-------------------|-------------------------------------

E-------------------|-------------------------------------



E-20b-r-19-19--17--------|-------------------

B-----------------20b-17-|-------------------

G------------------------|-----------4-5-7---

D------------------------|-4-4-5-6-7-------4-

A------------------------|-------------------

E------------------------|-------------------

"YEEEEAAAAH"

Play Pre-Chorus

Play Chorus



E-----------------

B-----------------

G-----------------

D---4-5-4---------

A-7-------7-5-7---

E---------------0-



Outro:

D

Stars in his eyes...

Letra subida por: Anónimo

El acorde de Juke Box Hero de Foreigner es una versión de la canción original realizada por colaboradores/usuarios de Coveralia.

¿Has encontrado algún error en esta página? Envíanos tu corrección del acorde