música
Buscador

Acorde de Joven Para Morir - Angeles Del Infierno

Letra de Joven Para Morir

Empieza sonando la bateria y entra la voz:  



D5 E5 D5 E5

Tu dices que todo lo hago mal

D5 E5 D5 E5

y que ?????????????? jamas

D5 E5 D5 E5

tu crees que todo es depravación

D5 E5 D5 E5

sexo violencia y Rock and Roll







A5 A5 A5 A5 A5 A5 A5

Llego tarde a casa empiezas a gritar

E5

si este chico sera normal

A5 A5 A5 A5 A5 A5 A5

Que siga estudiando o vaya a trabajar

E5

que asi no puedo continuar





D5 E5 D5 E5

No tienes que compararme a otro

D5 E5 D5 E5

no tengo que ser igual que tu

D5 E5 D5 E5

deja que viva mi propia vida

D5 E5 D5 E5

deja que siga con mi inquietud







A5 A5 A5 A5 A5 A5 A5

Se que algunas veces empiezas a dudar

E5

si este chico sera normal

A5 A5 A5 A5 A5 A5 A5

Pues los tiempos cambian no es igual que ayer

E5

tan solo curre crees que soy



ocultar esta pestaña -::--------------------::-

-::--------------------::-

-::--------------------::-

-::--------------------::-

-::-3---4---5---6---7--::-

-::-1---2---3---4---5--::-





Estribillo:



-::-----------------------------------------------------------------:

-::-----------------------------------------------------------------:

-::-----------------------------------------------------------------:

-::-9--7--9---7--7--5---5--4------------9--7--9---7--5--4-----------:

-::-7--5--7-------------------5---------7--5--7-----------5---------:

-::------------------------------0-0-0------------------------0-0-0-:

demasiado joven para morir



-------------------------------------------------------------------:

-------------------------------------------------------------------:

-------------------------------------------------------------------:

--9--7--9----7--5---5--4---------------9--7--9---7--5--4-----------:

--7--5--7-----------------5------------7--5--7------------5--------:

-------------------------------0-0-0-------------------------0-0-0-:

demasiado joven para morir



---------------------------------------------------------------------::-

---------------------------------------------------------------------::-

---------------------------------------------------------------------::-

-9-----5-----5-5------9--7-----7-7---9-----4---2--4--2-4---2--4--2-4-::-

-7-----3-----3-3------7--5-----5-5---7-----2---0--2--0-2---0--2--0-2-::-

----0-------------0---------------------0----------------------------::-

http://www.coveralia.com/acordes/joven-para-morir-angeles-del-infierno.php



-:----------:-

-:----------:-

-:----------:-

-:-9--7--9--:-

-:-7--5--7--:-

-:----------:-



D5 E5 D5 E5

Piensas que todo puede cambiar

D5 E5 D5 E5

si tu me dejas que elija yo

D5 E5 D5 E5

y no me impones tu voluntad

D5 E5 D5 E5

deja que tome mi decisión







A5 A5 A5 A5 A5 A5 A5

Se que algunas veces empiezas a dudar

E5

si este chico sera normal

A5 A5 A5 A5 A5 A5 A5

Pues los tiempos cambian no es igual que ayer

E5

tan solo curre crees que soy





Estribillo: se repite



ocultar esta pestaña Guitarra que acompaña al solo:



-:----------:-------------------------------------------------------

-:----------:-------------------------------------------------------

-:----------:-------------------------------------------------------

-:-9--7--9--:----9--9-----7/9------9--9-----7/9------9--9-----7/9---

-:-7--5--7--:----7--7-----5/7------7--7-----5/7------7--7-----5/7---

-:----------:--0-----------------0-----------------0----------------





-------------------------------------------------------

-------------------------------------------------------

-------------------------------------------------------

----9--9-----7/9------9--9-----7/9------9--9-----7/9---

----7--7-----5/7------7--7-----5/7------7--7-----5/7---

--0-----------------0-----------------0----------------





------------------------------------------------------------------

------------------------------------------------------------------

-------------------------------------------------------------------

----9--9-----7/9------9--9---------------------------------------

----7--7-----5/7------7--7-----5--7----------7-------5--7----------7

--0-----------------0----------3--5----5-5-5-5-------3--5----5-5-5-5-





------------------------------------------------------------------

------------------------------------------------------------------

-------------------------------------------------------------------

---7/9--------9--9-----7/9------9--9---------------------------------------

---5/7--------7--7-----5/7------7--7----5--7----------7-------5--7----------7

-----------0-----------------0----------3--5----5-5-5-5-------3--5----5-5-5-5-





-----------------------::----------------------::-

-----------------------::----------------------::-

-----------------------::----------------------::-

--5----------7---------::----------------------::-

--3----------5---------::--3---4---5---6---7---::-

-----------------------::--1---2---3---4---5---::-



Para terminar se repite de nuevo el estribillo 2 veces.

Letra subida por: Anónimo

Discos en los que aparece este acorde: Joven Para Morir

El acorde de Joven Para Morir de Angeles Del Infierno es una versión de la canción original realizada por colaboradores/usuarios de Coveralia.

¿Has encontrado algún error en esta página? Envíanos tu corrección del acorde