música
Buscador

Acorde de Joe The Georgian - Al Stewart

Letra de Joe The Georgian

Intro: 





Am Dm Am E

|--------------------------------------|

|--1--1--0h1--3--1h0--1----------------|

|------------------------2--2--2--2----|

|------------------------------------2-|

|--------------------------------------|

|--------------------------------------|





Am E

Now I've got my payment

Am E Am E

For the service that I gave

Am E

They've given me my ticket

C G C

To this place beyond the grave

Dm G

I suppose it's kind of funny

Am G F E

I suppose it's kind of sad

Am E Am E Am

Thinking back on all the times we had





Refrão:



Am E

But it's kind of hot and smoky

Am E Am E

In this anteroom to hell

Am E

And I won't make up a story

C G C

http://www.coveralia.com/acordes/joe-the-georgian-al-stewart.php

'Cause you know the truth so well

Dm G

It's much too late to worry

Am G F E

That we never had a chance

Am E

And when Joe the Georgian gets here

Am E *Am

We will dance





Am Dm F E

|--------------0----0--0----------------------------------------|

|-----0--1--3-------------3--1--3--3--1--0--1--1--0-----0--0----|

|--2-------------------------------------------------2----------|

|---------------------------------------------------------------|

|---------------------------------------------------------------|

|---------------------------------------------------------------|





Am Dm Am E Am E

|--------------1--0--------------------------------------0------|

|--------------------3--1--0--1--0-----1--0--------0--------3---|

|--2--1--2--2-----------------------2--------2--1-----2---------|

|---------------------------------------------------------------|

|---------------------------------------------------------------|

|---------------------------------------------------------------|





Am

|----------------|

|--1--0--1-------|

|-----------2----| -> VOLTA PRO SOLO DO Refrão.

|----------------|

|----------------|

|----------------|

Letra subida por: Anónimo

Discos en los que aparece este acorde: Between The Wars , Just Yesterday

El acorde de Joe The Georgian de Al Stewart es una versión de la canción original realizada por colaboradores/usuarios de Coveralia.

¿Has encontrado algún error en esta página? Envíanos tu corrección del acorde