música
Buscador

Acorde de Jesús Verbo No Sustantivo - Ricardo Arjona

Letra de Jesús Verbo No Sustantivo

Hablando:

Ayer, Jesús afinó mi guitarra y

agudizó mis sentidos... !me inspiró!

Papel y lápiz en mano apunto la canción

y me negué a escribir



porque hablar y escribir sobre Jesús

es redundar sería mejor actuar

Luego, algo me dijo que la única forma

de no redundar es decir la verdad



decir que a Jesús le gusta que actuemos

no que hablemos. decir que Jesús

es más que cinco letras formando un nombre



decir que Jesús es verbo..... no sustantivo





INTRO:

PD. en el hexagrama de las posiciones de la mano izquierda

cuando se requiera se indicará el traste para no dibujar

tan grande el exagrama (y porque es convencional)



D A

6 1 6 1

______/ ______/

5°|||||1 8°||||||

|||||| |||1|3

|||23| ||||2|

|||||| ||||||



E----------------------------------|----------------------------------|

A----------------------------------|-0--------------------------------|

D-0--------------------------------|----------------------------------|

g----------7---7-------------------|---9-------------------(9)----(9)-|

b------7---7---8---7---7---10---10-|----10---12------10-------(10)----|

e------5-----------5---5---10------|-----9-------9--------------------|





Bm7 F#m

6 1 6 1

______/ ______/

7°111111 8°||||||

|||||| 111111

|3|||| ||||2|

|||||| ||34||



E-7--------------------------------|----------------------------------|

A----------------------------------|-9--------------------------------|

D----------------------------------|--11------------------(11)---(11)-|

g----------7---9-------------------|---11----12------11------(11)-----|

b------7-----------7---7-------7---|----10-------10-------------------|

e--------------------------7-------|----------------------------------|





G D

6 1 6 1

______/ ______/

|||||| ||||||

|2|||| |||1|2

3||||| ||||3|

|||||| ||||||



E-3--------------------------------|----------------------------------|

A----------------------------------|----------------------------------|

D----------------------------------|--0-------------------------------|

g----0-------3---------------------|---------------------(2)---(2)----|

b--------0-------0---2---3---------|----------------3-------(3)-------|

e----------------------------0-----|--2h3h2---0h2---------------------|







E A

6 1 6 1

______/ ______/

7°|||||1 9°|||1|2

|||||| ||||3|

|||23| ||||||

|||||| |||||4



E-0--------------------------------|----------------------------------|

A----------------------------------|--0-------------------------------|

D----------------------------------|----------------------------------|

g---9------------------------------|------9---------------------------|

b----9----10---9---10-------9------|-------10-----10---10-------------|

e-----7-----------------7----------|---------12---10---9--------------|



http://www.coveralia.com/acordes/jesus-verbo-no-sustantivo-ricardo-arjona.php











D

E|----------------------------------||

A|----------------------------------||

D|°-0------------------------------°||2 ó 3

g|°-----2-------2------2-------2---°||veces

b|----------3--------------3--------||

e|------------------2---------------||





D A Bm Bm/A

Jesús es más que una simple y llana teoría

G A D D7

qué haces hermano leyendo la biblia todo el día

G A

lo que ahí está escrito se resume

D F#7 Bm

en amor anda vé y practícalo

G A D

Jesús hermanos mios es verbo no sustantivo





Jesús es más que un templo de lujo con tendencia barroca

el sabe que total a la larga eso no es mas que roca

la iglesia se lleva en el alma

y en los actos no se te olvide

que Jesús hermanos mios es verbo no sustantivo



Jesús es más que un grupo de señoras de muy negra conciencia

que pretenden ganarse el cielo con un club de beneficencia

si quieres tú ser miembro activo

tendrás que presentar a la directiva

tu cuenta de ahorros en Suiza y vínculos oficiales



Jesús es más que persignarse, incarse y hacer de esto alarde

él sabe que quiza por dentro la conciencia les arde

Jesús es más que una flor

en el altar salvadora de pecados

Jesús hermanos mios es verbo no sustantivo



Jesús convertía en hechos todos sus sermones

que si tomas café es pecado dicen los mormones

tienen tan poco que hacer que andan inventando cada cosa

Jesús hermanos mios es verbo no sustantivo



Jesús no entiende por qué en el culto le aplauden

hablan de honestidad sabiendo que el diezmo es un fraude

a Jesús le da asco el pastor que se hace rico con la fé

Jesús hermanos mios es verbo no sustantivo



De mi barrio la mas religiosa era Doña Carlota

hablaba de amor al prójimo y me ponchó cien pelotas

desde niño fuí aprendiendo que la religión

no es mas que un método

con el título: 'prohibido pensar que ya todo está escrito'



Me bautizaron cuando tenía dos meses y a mi no ve avisaron

hubo fiesta piñata y a mi ni me preguntaron

bautízame tú Jesús por favor así entre amigos

sé que odias el protocolo hermano mio



Señores no dividan la fé las fronteras son para los paises

en éste mundo hay mas religiones que niños felices

Jesús pensó me haré invisible para que todos mis hermanos

dejen de estar hablando tanto de mí y se tiendan la mano



Jesús éres el mejor testigo del amor que te profeso

tengo la conciencia tranquila y por eso no me confieso

rezando tres padres nuestros el asesino no revive a su muerto

Jesús hermanos mios es verbo no sustantivo



D A Bm Bm/A

Jesus no bajes a la tierra quedate allá arriba

G A D D7

todos los que han pensado como tú hoy están boca arriba

G A D F#7 Bm

olvidados en algún cementerio de equipaje sus ideales

G A

murieron con la sonrisa en los labios

D

porque fueron verbo y no sustantiiiiiiivooooooooo

El acorde de Jesús Verbo No Sustantivo de Ricardo Arjona es una versión de la canción original realizada por colaboradores/usuarios de Coveralia.

¿Has encontrado algún error en esta página? Envíanos tu corrección del acorde