música
Buscador

Acorde de Islands - Mike Oldfield

Letra de Islands

INTRO  

******

-------------------------------------------------------------------

Distorted Electric Guitar

**************************

00:14

s H s H H

--5/-17-17--15-14-15-17------15-17-15-15--14-14-/12-12-|-12-14-15-

--------------------------15---------------------------|----------

-------------------------------------------------------|----------

-------------------------------------------------------|----------

-------------------------------------------------------|----------

-------------------------------------------------------|----------



p h s

-17-17--15-14-15-17-----15-17-15-15/14-12--------s-

---------------------15--------------------15-15-/-

---------------------------------------------------

---------------------------------------------------

---------------------------------------------------

---------------------------------------------------



-------------------------------------------------------------------

verse 1

********

D Bm

Islands, from the first time we saw

G D

We could wait for this moment, like rocks on the shore

Bm

We can never be closer, somehow

G D

For the moment that lasts, is this moment now



-------------------------------------------------------------------

BRIDGE

*******

D G A D

When the night's on fire, will you keep the candlelight burning

G A

Hold on to your heart's desire, (When the night's on fire)

D G A D

When you see one bird into the wind, another one's turning

G A

And the two can fly much higher





D

http://www.coveralia.com/acordes/islands-mike-oldfield.php

We are islands but never too far\

Em \

We are islands \

A X2

And I need your light tonight /

D /

And I need your light tonight /





verse 2

********

D Bm

Islands, never been to before

G D

And we climb so high to where the wild birds soar

Bm

There's a new path that we found just today

G D

I was lost in the forest and you showed me the way



-------------------------------------------------------------------

BRIDGE

*******

D G A D

When the night's on fire, will you keep the candlelight burning

G A

Hold on to your heart's desire, (When the night's on fire)

D G A D

When you see one bird into the wind, another one's turning

G A

And the two can fly much higher





D

We are islands but never too far\

Em \

We are islands \

A X5

And I need your light tonight /

D /

And I need your light tonight /



Fade out with Chorus and sax solo.









Letra subida por: Anónimo

El acorde de Islands de Mike Oldfield es una versión de la canción original realizada por colaboradores/usuarios de Coveralia.

¿Has encontrado algún error en esta página? Envíanos tu corrección del acorde