música
Buscador

Acorde de Island In The Sun - Weezer

Letra de Island In The Sun

Intro: 



E|3 5 2 3

B|5 5 3 3

G|4 5 2 0

D|x 0



Intr.(Em Am D G)

Hip Hip

Em Am D G

When you are on a holiday

You can't find the words to say

All the things that comes to you

And i wanna feel it too



Em Am D G

On an island in the sun

We'll be playing and having fun

And it makes me feel so fine

I can't control my brain



(Em Am D G)4x

Hip Hip



Em Am D G

When you are on a golden sea

You don't need no memory

Just a place to call your own

As we drift into the zone



Em Am D G

On an island in the sun

http://www.coveralia.com/acordes/island-in-the-sun-weezer.php

We'll be playing and having fun

And it makes me feel so fine

I can't control my brain



D G

We'll run away...together

D G

We'll spend some time...forever

C A D

We'll never feel bad anymore

(Em Am D G)

Hip Hip



Solo: (2x)



e||-----------------------------------------------------|

B||-----------------------------------------------------|

G||----7--9--7--5--4--5--4------------------------|

D||--------------------------5--9--7--5--4-5--5---|

A||----------------------------------------------------|

E||----------------------------------------------------|



Solinho(faça junto com o canto, na parte 'on the island in the sun...')



e||-------------------------------------------------------|

B||------8--8--10--10--7--7--8--8-----------------|

G||----9--9---9---9--7--7--7--7--------------------|

D||------------------------------------------------------|

A||------------------------------------------------------|

E||------------------------------------------------------|

Letra subida por: Anónimo

El acorde de Island In The Sun de Weezer es una versión de la canción original realizada por colaboradores/usuarios de Coveralia.

¿Has encontrado algún error en esta página? Envíanos tu corrección del acorde