música
Buscador

Acorde de Isaac - Bear's Den

Letra de Isaac

Verse
             B(1)        B           E(1)       F#                    
D       ------0----------0-----------x----------0----------|
A       ------0----------2-----------0----------0----------|
F#      ------1----------1-----------1----------0----------|
D       ------2----------0-----------2----------0----------|
A       ------2----------2-----------3----------0----------|
D       ------0----------0-----------x----------0----------|

Chorus
              E          B          F#                        
D       ------x----------0----------0----------|
A       ------3----------2----------0----------|
F#      ------1----------1----------0----------|
D       ------2----------0----------0----------|
A       ------3----------2----------0----------|
D       ------x----------0----------0----------|

B(1)
Isaac, are you listening
  E(1)            B
I watched it from afar
     F#             B               E(1)   F#
As I watched as the clouds began to part
B(1)
Isaac can you see me now
     E(1)             B
I've known you all my life
  F#          B                      E(1)   F#
I worship the ground that you walk upon
B(1)
Isaac will you never learn 
       E(1)     B            F#
That a father's love must be earned
           B               E(1)  F#
While your mother need not learn
B(1)
Isaac I have never seen you 
E(1)    B
Look so afraid
          F#              B                E(1)   F#
With your head pressed so hard against the stone
             B(1)
You look so alone

E      B       F#
I'm gonna give all my love to you
               E      B       F#
I'm gonna give all my love to you
               E      B       F#
I'm gonna give all my love to you

E         B           F#        x2

B(1)
Isaac are you listening
  E(1)             B
I watched it from afar
     F#              B               E(1)   F#
As I watched as your life just fell apart
B(1)
Isaac will you never learn 
       E(1)     B            F#
That a father's love must be earned
           B               E(1)  F#
While your mother need not learn
             B(1)
How to love you

E      B       F#
I'm gonna give all my love to you
               E      B       F#
I'm gonna give all my love to you
               E      B       F#
I'm gonna give all my love to you

E         B           F#        x2

E      B       F#
I'm gonna give all my love to you
               E      B       F#
I'm gonna give all my love to you
               E      B       F#
I'm gonna give all my love to you


Letra subida por: Anónimo

Discos en los que aparece este acorde: Islands

El acorde de Isaac de Bear's Den es una versión de la canción original realizada por colaboradores/usuarios de Coveralia.

¿Has encontrado algún error en esta página? Envíanos tu corrección del acorde