música
Buscador

Acorde de Is There Anybody Out There? - Pink Floyd

Letra de Is There Anybody Out There?

e|--------0---------------0---------------0---------------0---------------0--------0---

b|------1---1-----------1---1-----------1---1-----------1---1-----------1--------1-----

g|----2-------2-------2-------2-------2-------2-------2-------2-------2--------2-------

D|--2-----------2---3-----------3---4-----------4---3-----------3---2--------0---------

A|-------------------------------------------------------------------------------------

E|-------------------------------------------------------------------------------------



e|--------0--------0----------0---------------------------------0------------------------|

b|------1--------1----------1---1-----------1-----------------1---1-----------1----------|

g|----2--------2----------2-------2-------2---2---2---------2-------2-------2---2---2----|

D|----------------------2-----------2---2-------2---2-----2-----------2---2-------2---2--|

A|--3--------2--------0---------------0-----------------0---------------0----------------|

E|---------------------------------------------------------------------------------------|















e|--------0---------------0---------------0---------------0-----------------------------0--

b|------1---1-----------1---1-----------1---1-----------1---1-----------1------1------1----

g|----2-------2-------2-------2-------2-------2-------2-------2-------2------2------2------

D|--2-----------2---3-----------3---4-----------4---3-----------3---3------2------0--------

A|-----------------------------------------------------------------------------------------

E|-----------------------------------------------------------------------------------------



e|------------

b|------------

g|------------

D|------------

A|--3--2--0---

E|------------



e|----------0---------------------------------0------------------------|

b|--------1---1-----------1-----------------1---1-----------1----------|

g|------2-------2-------2---2---2---------2-------2-------2---2---2----|

D|----2-----------2---2-------2---2-----2-----------2---2-------2---2--|

A|--0---------------0-----------------0---------------0----------------|

E|---------------------------------------------------------------------|





http://www.coveralia.com/acordes/is-there-anybody-out-there--pink-floyd.php









e|----------0----------------0-----------------0-----------------------

b|--------1---1------------1---1-------------1---1-------5--3--1--0----

g|------0-------0--------0-------0---------2-------2----5--4--2--0-----

D|----2----------2-----0-----------0-----2-----------2-----------------

A|--3----------------2-----------------0-------------------------------

E|---------------------------------------------------------------------



e|----------0----------------0-----------------0---------8--7---------|

b|--------1---1------------1---1-------------1---1--------------------|

g|------0-------0--------0-------0---------2-------2----9--7----------|

D|----2----------2-----0-----------0-----2-----------2----------------|

A|--3----------------2-----------------0------------------------------|

E|--------------------------------------------------------------------|















e|--------0---------------0---------------0---------------0---------------0--------0---

b|------1---1-----------1---1-----------1---1-----------1---1-----------1--------1-----

g|----2-------2-------2-------2-------2-------2-------2-------2-------2--------2-------

D|--2-----------2---3-----------3---4-----------4---3-----------3---2------------------

A|---------------------------------------------------------------------------3---------

E|-------------------------------------------------------------------------------------



e|--------0-------------------7--8/--------------12----------------------------||

b|------1----------1/-----/5------------------13-------------------------------||

g|----2----------2-------------------------14----------------------------------||

D|-------------2---------------------------------------------------------------||

A|--2--------0-------------------------0---------------------------------------||

E|-----------------------------------------------------------------------------||







El acorde de Is There Anybody Out There? de Pink Floyd es una versión de la canción original realizada por colaboradores/usuarios de Coveralia.

¿Has encontrado algún error en esta página? Envíanos tu corrección del acorde