música
Buscador

Acorde de Intentémoslo Otra Vez - Los Del Bohio

El punteito del principio es fácil



arranca en LA



e----------------|

b--------5-------|

G------6---------|

D----7--------7--|

A----------------|

E--5--------5----|



e-5-7-9-5h7-5--|------9h10-9-7-9-7----|--------9-7---------

b------------9-|-7h9-7-------------10-|--7-9-10----10-9----

G--------------|----------------------|--------------------

D--------------|----------------------|--------------------

A--------------|----------------------|--------------------

E--------------|----------------------|--------------------



e------7-9---7-9-10-|--------------------7-9-10-10h12--

b-10-10----10-------|--------------7-9-10--------------

G-------------------|---------6-7-9--------------------

D-------------------|----6-7-9-------------------------

A-------------------|-7-9-----------------------------

E-------------------|-------------------------------





LA

Te sienta bien ese vestido verde

DO#m

parece que los años no han pasado

RE SIm

ya se ya me contaron los amigos

MI

que te va muy bien





ya ves yo sigo siendo aquel de siempre

quizas algo cansado indiferente

no sabes que alegria me da verte

tan bonita......





LA

Intentemos otra vez

http://www.coveralia.com/acordes/intentemoslo-otra-vez-los-del-bohio.php

FA#m

yo sin ti muero

SIm

intentemos otra vez

RE MI

por que sin ti nada tiene razon

LA

intentemoslo

FA#m

como te quiero

SIm

intentemos otra vez

RE MI LA

quiero brindar por volvernos a ver





e--9-9-7-7---------------------|------9h10-10-9-------------------|

b----------10-10-9-10-9-7-10-10|-10-12----------12-10-10-9-10-12--|

G------------------------------|----------------------------------| X2

D------------------------------|----------------------------------|

A------------------------------|----------------------------------|

E------------------------------|----------------------------------|



Aveces en silencio es elocuente

desnudame mi amor desenfrenadamente

hagamos que esta noche tenga magia; otra vez

quizas fuimos dos locos inconcientes

no sabes que alegria me da verte

yo creo que debemos intentarlo; otra vez...



Intentemos otra vez

yo sin ti muero

intentemos otra vez

por que sin ti nada tiene razon

intentemoslo

como te quiero

intentemos otra vez

quiero brindar por volvernos a ver









Letra subida por: Anónimo

Discos en los que aparece este acorde: El Fenomeno

El acorde de Intentémoslo Otra Vez de Los Del Bohio es una versión de la canción original realizada por colaboradores/usuarios de Coveralia.

¿Has encontrado algún error en esta página? Envíanos tu corrección del acorde