música
Buscador

Acorde de Insoportable - El Canto Del Loco

Letra de Insoportable

CON CEJILLA EN EL SEGUNDO TRASTE:



Introducción:



D Dsus4 D Dsus4

D G Asus4 A

F#m G Asus4 A





D G Asus4 A

Ya lo se lo que eres corazon

D G Asus4 A

Mirate y ves que eres lo peor

F#m G Asus4 A

Y ya no hay nada que me sirva en tu interior

F#m G Asus4 A

Y es que yo por ti no doy ni un duro amor





D G A Asus4 A

Aunque digas no se te ha hecho tarde (ya se te ha hecho tarde)

F#m G A Asus4 A

Sabes que eres un poquito insoportable (tan insoportable)

D G A Asus4 A

Mirarás siempre hacia atrás arrepentida (tan arrepentida)

F#m G (A Asus4 A Asus2 x2)

Sabes que yo he dado todo todo en balde (en balde)





D G Asus4 A

Ya vere si vuelvo a verte o no

D G Asus4 A

Tu podras creer que voy de duro y no

F#m G Asus4 A

Y ya no hay nada que me sirva en tu interior

F#m G Asus4 A

Y es que yo por ti no doy ni un duro amor





D G A Asus4 A

Aunque digas no se te ha hecho tarde (ya se te ha hecho tarde)

F#m G A Asus4 A

Sabes que eres un poquito insoportable (tan insoportable)

D G A Asus4 A

Mirarás siempre hacia atrás arrepentida (tan arrepentida)

F#m G (A Asus4 A Asus2 x2)

Sabes que yo he dado todo todo en balde (en balde)







Solo de David Otero: (relativa al capo)





E----5---------------------------------------------------------------------

B-5b7-7b5-3----3s5-7-5------3-2-----------------------------------3-2-3-5--

http://www.coveralia.com/acordes/insoportable-el-canto-del-loco.php

G------------4----------2-2-----4-2------------------2s4s2--2-2------------

D-------------------------------------4-4-4-2-4-5--5-----------------------

A--------------------------------------------------------------------------

E--------------------------------------------------------------------------



E----5---------------------------------------------------------------------

B-5b7-7b5-3----3s5-7-5------3-2---------------------------------3-2-3-5-3..

G------------4----------2-2-----4-2------------------2s4s2--2-2------------

D------------------------------------4-4-4-2-4-5--5------------------------

A--------------------------------------------------------------------------

E--------------------------------------------------------------------------





D G A Asus4 A

Aunque digas no se te ha hecho tarde (ya se te ha hecho tarde)

F#m G A Asus4 A

Sabes que eres un poquito insoportable (tan insoportable)

D G A Asus4 A

Mirarás siempre hacia atrás arrepentida (tan arrepentida)

F#m G A Asus4 A

Sabes que yo he dado todo todo en balde (en balde)





D G A Asus4 A

Aunque digas no se te ha hecho tarde (ya se te ha hecho tarde)

F#m G A Asus4 A

Sabes que eres un poquito insoportable (tan insoportable)

D G A Asus4 A

Mirarás siempre hacia atrás arrepentida (tan arrepentida)

F#m G (A Asus4 A Asus2 x2)

Sabes que yo he dado todo todo en balde (en balde)



D





Acordes:



D Dsus4 G A Asus2 Asus4 F#m



E -2- -3- -3- -0- -0- -0- -2-

B -3- -3- -3- -2- -2- -3- -2-

G -2- -2- -4- -2- -2- -2- -2-

D -0- -0- -5- -2- -0- -2- -4-

A -X- -X- -5- -0- -X- -0- -4-

E -X- -X- -3- -X- -X- -X- -2-



Solo:



b = bend



s = slide(deslizar)



.. = aguantar nota

Letra subida por: Anónimo

El acorde de Insoportable de El Canto Del Loco es una versión de la canción original realizada por colaboradores/usuarios de Coveralia.

¿Has encontrado algún error en esta página? Envíanos tu corrección del acorde