música
Buscador

Acorde de Insolencia - Barricada

Letra de Insolencia



Intro:



e |-------------------------------------------------------------------|

B |-------------------------------------------------------------------|

G |-------------------------------------------------------------------|

D |--4--4---2--2---6---6--4---4-4-4--4--4---2--2---6---6--4-- ----* --|

A |--2--2---0--0---4---4--2---2-2-2--2--2---0--0---4---4--2-- ----* --|

E |-------------------------------------------------------------------|



En el asterisco es cuando vienen los cortes del sonido. Yo lo algo

soltando el cable de la guitarra, y queda bastante bien.





Después se repite todo y es cuando empieza a cantar, las guitarras

hacen cosas raras de fondo, pero el ritmo se mantiene:



SI LA DO# SI

Observarte no es esfuerzo



SI LA DO# SI

Pasos desnudos esquivan la luz

Mano y lengua que no paran

Resbalan por toda su longitud

...





Todo el rato igual hasta que comienza:



http://www.coveralia.com/acordes/insolencia-barricada.php

MI SOL LA

Quiero más Empujar de nuevo



MI SOL LA

Arañar Frenético la piel



MI SOL LA

Dentro de Su encierro



MI SOL LA RE

No puedo escapar al espasmo final





Luego, en el sólo, la base es igual que al principio. Al principio hace

virguerias con la guitarra hasta que pilla una melodía que se repite. Yo

hago esa melodía algo así, pero cada uno que lo haga como quiera:



e |---------------------------------------------------|

B |-----------7-----------9-----------------7---------|

G |--6--6--8-----8--6--6-------6--8---6--8------------|

D |---------------------------------------------------|

A |---------------------------------------------------|

E |---------------------------------------------------|





El final ya es repetir lo puesto, y no hay ganas de copiarlo otra vez, así

que eso es todo. A darle caña a la guitarra.

El acorde de Insolencia de Barricada es una versión de la canción original realizada por colaboradores/usuarios de Coveralia.

¿Has encontrado algún error en esta página? Envíanos tu corrección del acorde