música
Buscador

Acorde de Inocente De Ti - Juan Gabriel

Letra de Inocente De Ti

Intro:

*(C - C/D - C - F/E - F/E* - F/E)* C. *(con el 'solo' hasta que acabe)*



E|-8-8-8-10-8-8-8-8-8-10-8-8----|

A|--8-8-8--8-8-8-8-8-8--8-8-8---|->sucesivamente

D|------------------------------|

G|------------------------------|

B|------------------------------|

E|------------------------------|



C G

Inocente de ti,cuanto daño te habran hecho

F G C G7

se muy bien ques por despecho,que no confias en mi

C G

inocente de ti,cuantos no te habran mentido

F G C G7

cuantos no te habran herido,pero yo no soy asi



precoro

C Am

yo tambien fui lastimado,se muy bien lo que se siente

F E

yo tambien fui inocente,y me engañaron sin piedad..



coro

C Am F

para serte mas sincero,a nadie rencor le guardo

Dm G

aun con todo y sin embargo,les perdono una vez mas

G7 C Am

por que,todo lo pasado,si no es bueno hay que olvidarlo

F Bb

se muy bien que no es tan facil,pero que le va uno hacer

C Am

imposible de estar siempre,dandole tanta importancia

F Dm G

ya veras que a la distancia,todo queda en el ayer

http://www.coveralia.com/acordes/inocente-de-ti-juan-gabriel.php

C Am

por la forma en que reaccionas,te comprendo y te respeto

F Bb

tu veras que con el tiempo,yo te voy a demostrar..

C Am

que todo lo que te dicho,de este amor es puro y cierto

F b G G7

pero nunca me compares,nunca me compares,por favor

C

con los demas..



*(C - C/D - C - F/E - F/E* - F/E)* C. *(con el 'solo' hasta que acabe)*



E|-8-8-8-10-8-8-8-8-8-10-8-8----|

A|--8-8-8--8-8-8-8-8-8--8-8-8---|->sucesivamente

D|------------------------------|

G|------------------------------|

B|------------------------------|

E|------------------------------|



C Am

por la forma en que reaccionas,te comprendo y te respeto

F Bb

tu veras que con el tiempo,yo te voy a demostrar...

D Bm

que todo lo que te dicho,de este amor es puro y cierto

G Em A

pero nunca me compares,nunca me compares,por favor

*(D - Bm - G - A)* *(hasta que acabe junto con el 'solo')*

con los demas....



E|--10--10--10--12--10--10--10--10--10--12--10--10---|

A|----10--10--10--10--10--10--10--10--10--10--10--10-|->sucesivamente

D|---------------------------------------------------|

G|---------------------------------------------------|

B|---------------------------------------------------|

E|---------------------------------------------------|

Discos en los que aparece este acorde: Inocente De Ti , La Historia Del Divo (Dvd)

El acorde de Inocente De Ti de Juan Gabriel es una versión de la canción original realizada por colaboradores/usuarios de Coveralia.

¿Has encontrado algún error en esta página? Envíanos tu corrección del acorde