música
Buscador

Acorde de Ilumina Mi Ser - Logos

Letra de Ilumina Mi Ser

intro:



e|---------------------------------------------|

B|---------------------------------------------|

G|-2-2-----------------------------------------|

D|-2-2----------------2------------------------|

A|-0-0--5-3p0-3-0-------5-3p0-3-0--------------|

E|----------------3-5-------------3-5----------|



e|------------------------------|

B|------------------------------|

G|--------------------------4---|

D|---2----------------7---5-----|

A|-----5-3p0-3------5---3-------|

E|-------------3-5--------------|



intro X 2









e|----------------------------------------------|

B|----------------------------------------------|

G|----------------------------------------------|

D|----------------------------------------------|

A|--2-------4----------------5---------5-5-5----|

E|--0-------2----------------5---------3-3-3----|



Dejando todo atrás te voy a seguir

Sin... paso atrás para no morir





e|----------------------------------------------|

B|----------------------------------------------|

G|--------------------4-------------------------|

D|--------------------4-------2-----------------|

A|--4-------4------2--2-0-2-4---4-2-------------|

E|--2-2-2-2-2------0----------------------------|

......



y a donde iré

sino hay a donde ir



e|----------------------------------------------|

B|----------------------------------------------|

G|----------------------------------------------|

D|----------------4---------7------------9------|

A|--4-------4-----2---------5------------7------|

E|--2-2-2-2-2-----------------------------------|

.....



SI tu eres LA verdad que le da sentido a mi existir





e|---------------------------------------------|

B|---------------------------------------------|

G|-2-2-----------------------------------------|

D|-2-2-----------------------------------------|

A|-0-0--5-3p0-3-0-----------3------5-----------|

E|----------------3-5-------1------3-----------|



cuan.. iluminas



Cuando iluminas con tu luz



e|---------------------------------------------|

B|---------------------------------------------|

G|-2-2------------------------4----------------|

D|-2-2------------------7---5------------------|

A|-0-0--5-3p0-3-0-----5---3--------------------|

E|----------------3-5--------------------------|





e|--------------------------------------------------|

B|--------------------------------------------------|

G|--------------------------------------------------|

D|--------------------------------------------------|

A|--2-----------4-------------5----------555--------|

E|--0-----------2-------------5----------333--------|



saltando el muro de toda realidad

Creyendo para ver aprendí a mirar





e|--------------------------------------------------|

B|--------------------------------------------------|

G|--------------------4-----------------------------|

D|--------------------4-------2---------------------|

A|--4-------4------2--2-0-2-4---4-2-----------------|

E|--2-2-2-2-2------0--------------------------------|

......



tanta impiedad

tanta muerte y dolor



e|--------------------------------------------------|

B|--------------------------------------------------|

G|--------------------------------------------------|

D|----------------4---------7------------9----------|

A|--4-------4-----2---------5------------7----------|

E|--2-2-2-2-2---------------------------------------|



la eterna soledad de ese avismo que hubo entre los dos



e|---------------------------------------------|

B|---------------------------------------------|

G|-2-2-----------------------------------------|

D|-2-2-----------------------------------------|

A|-0-0--5-3p0-3-0-----------3------5-----------|

E|----------------3-5-------1------3-----------|

http://www.coveralia.com/acordes/ilumina-mi-ser-logos.php



cuan.. iluminas



Cuando iluminas con tu luz



e|---------------------------------------------|

B|---------------------------------------------|

G|-2-2-----------------------------------------|

D|-2-2-----------------------------------------|

A|-0-0--5-3p0-3-0-----------3------5-----------|

E|----------------3-5-------1------3-----------|



cuan.. iluminas



Cuando iluminas





e|--------------------------------------------------|

B|--------------------------------------------------|

G|--------------------------------------------------|

D|--------------------------9-----------------------|

A|---8-----------5----------7-----------------------|

E|---6-----------3----------------------------------|



reduce el hombre todo a la razón







e|--------------------------------------------------|

B|--------------------------------------------------|

G|--------------------------------------------------|

D|-----------------------------7--------------------|

A|---8----------10-------------5--------------------|

E|---6----------8-----------------------------------|



perdiéndose en la oscuridad





Solo



e|----------------------12b(afull)-12--10--9--10-9-7--7/10-9-7--5-7-9-10-|

B|-5/9--12-10-9-7--9-12--------------------------------------------------|

G|-----------------------------------------------------------------------|

D|-----------------------------------------------------------------------|

A|-----------------------------------------------------------------------|

E|-----------------------------------------------------------------------|



e|-9-7-5--7-10~-9~-7~-9-7-5~-----------------|

B|-------------------------------------------|

G|-------------------------------------------|

D|-------------------------------------------|

A|-------------------------------------------|

E|-------------------------------------------|





e|----------------------------------------------|

B|----------------------------------------------|

G|--------------------4-------------------------|

D|--------------------4-------2-----------------|

A|--4-------4------2--2-0-2-4---4-2-------------|

E|--2-2-2-2-2------0----------------------------|

......



y a donde iré

sino hay a donde ir



e|----------------------------------------------|

B|----------------------------------------------|

G|----------------------------------------------|

D|----------------4---------7------------9------|

A|--4-------4-----2---------5------------7------|

E|--2-2-2-2-2-----------------------------------|



SI tu eres LA verdad que le da sentido a mi existir





e|---------------------------------------------|

B|---------------------------------------------|

G|-2-2-----------------------------------------|

D|-2-2-----------------------------------------| x4

A|-0-0--5-3p0-3-0-----------3------5-----------|

E|----------------3-5-------1------3-----------|



cuan.. iluminas



Cuando iluminas con tu luz

Cuando iluminas con tu luz

Cuando iluminas con tu luz

Cuando iluminas







e|---------------------------------------------|

B|---------------------------------------------|

G|-2-2-----------------------------------------|

D|-2-2----------------2------------------------|

A|-0-0--5-3p0-3-0-------5-3p0-3-0--------------|

E|----------------3-5-------------3-5----------|





e|------------------------------|

B|------------------------------|

G|------------------------------|

D|---2--------------------------|

A|-----5-3p0-3---7--------------|

E|-------------3-5--------------|





Letra subida por: Anónimo

Discos en los que aparece este acorde: Plan Mundial Para La Destruccion

El acorde de Ilumina Mi Ser de Logos es una versión de la canción original realizada por colaboradores/usuarios de Coveralia.

¿Has encontrado algún error en esta página? Envíanos tu corrección del acorde