música
Buscador

Acorde de I Was Made For Lovin' You - Kiss

Letra de I Was Made For Lovin' You

Em     G     	B      D      C

--0-- --3-- --2-- --2-- --3--|

--0-- --3-- --4-- --3-- --5--|

--0-- --4-- --4-- --2-- --5--|

--2-- --5-- --4-- --0-- --5--|

--2-- --5-- --2-- --0-- --3--|

--0-- --3-- --2-- --0-- --3--|



Intro Acoustic(slowly)

Em Am

---------0------0---:----------0------0----|

----0------0------0-:------1-----1------1--|

--0---0------0------:----2---2-----2-------|

--------------------:-2--------------------|

2-------------------:-0--------------------|

--------------------:----------------------|



Or Electric (distorcion)



-------------------------------------------|

-10--8----10--10--8------------------------|

-9---9----9---9---9---7--5---9--9--7-------|

----------------------7--7---7--7--7-------|

-------------------------------------------|

-------------------------------------------| x2





Em G

Tonight I wanna give it all to you

B

In the darkness

Em

Theres so much I wanna do

Em G

And tonight I wanna lay it at your feet

B

cause girl, I was made for you

A

And girl, you were made for me



Em

I was made for lovin you baby

Am

You were made for lovin me

Em

And I cant get enough of you baby

Am Em B

http://www.coveralia.com/acordes/i-was-made-for-lovin--you-kiss.php

Can you get enough of me



(From here it's played the same way)



Tonight I wanna see it in your eyes

Feel the magic

Theres something that drives me wild

And tonight were gonna make it all come true

cause girl, you were made for me

And girl I was made for you



I was made for lovin you baby

You were made for lovin me

And I cant get enough of you baby

Can you get enough of me



I was made for lovin you baby

You were made for lovin me

And I can give it all to you baby

Can you give it all to me



D C D Em

Oh, cant get enough, oh, oh

C D Em

I cant get enough, oh, oh

C D

I cant get enough



(played the same wy as the other chorus)

I was made for lovin you baby

You were made for lovin me

And I cant get enough of you baby

Can you get enough of me



Em Am

Oh, I was made, you were made

Em

I cant get enough

Am

No, I cant get enough



I was made for lovin you baby

You were made for lovin me

And I cant get enough of you baby

Can you get enough of me

Letra subida por: Anónimo

¿Has encontrado algún error en esta página? Envíanos tu corrección del acorde