música
Buscador

Acorde de I Promise You - Selena Gomez & The Scene

Letra de I Promise You

Intro: B--Ebm--G#m--E--



Guitar 2:

B Ebm Abm E

e|-7----9--11-|-6----7--9-|-7----9--11--7-|-12--11--9-

B|---7--------|---4-------|---9-----------|-----------

G|------------|-----------|---------------|-----------

D|------------|-----------|---------------|-----------

A|------------|-----------|---------------|-----------

E|------------|-----------|---------------|-----------





Verse 1:

B Ebm

I Know That My Love

Abm

For You is Real

It's the Truth

E

That we do something

B

natural That i feel

Ebm

When you walk in the room

Abm

or your near

E

i feel my heart skip a beat

the whole world disappears





Refrain 2:

Abm B

then there's just you and me

C#m

falling head over feet

B F#

lets take a chance together





Chorus:

E

i know i know

B

i know i know we're

F#

gonna make it cause

no one else can

E

make me feel the

B F#

way that you do

i promise you

E

i know i know

B

i know i know we

F#

gonna get there

E

today tomorrow and

B F#

forever we will stay

true i promise you





Interlude: B--Ebm--G#m--E--



Guitar 2:

B Ebm Abm E

e|-7----9--11-|-6----7--9-|-7----9--11--7-|-12--11--9-

B|---7--------|---4-------|---9-----------|-----------

http://www.coveralia.com/acordes/i-promise-you-selena-gomez-y-the-scene.php

G|------------|-----------|---------------|-----------

D|------------|-----------|---------------|-----------

A|------------|-----------|---------------|-----------

E|------------|-----------|---------------|-----------





Verse 2:

B

They say that "we're

Ebm

just too young"

Abm

to know but I'm sure heart

E

and soul that I am

B

never letting you go

Ebm

when its right its right

Abm

and this is it

E

cause I'm walking on air

every time that we kiss





Refrain 2:

Abm B

you make the angel sing

you give those

C#m

song birds rings

B F#

you make everything better





(Repeat Chorus)





Bridge:

Abm B

i'll never let you down

E

i'll always hear you out

F#

& there is nothing you

can mount cause

Abm B

you listen when i speak

C#

you make my knees go weak

Eb

and i just want you by my side





(Repeat chorus)





Outro:

E B F#

we're gonna make it

E

i promise you

B F#

yeah yeah yeah

B Ebm

i promise you

Abm E

i promise you

B(hold)

i promise you

El acorde de I Promise You de Selena Gomez & The Scene es una versión de la canción original realizada por colaboradores/usuarios de Coveralia.

¿Has encontrado algún error en esta página? Envíanos tu corrección del acorde