música
Buscador

Acorde de I Kissed A Girl - Katy Perry

Letra de I Kissed A Girl

Am         G/B       C      Dm

This was never the way I planned

F E

Not my intention

Am G/B C Dm

I got so brave, drink in hand

F E

Lost my discretion



Am G/B

It's not what

C Dm

I'm used to

F E

Just wanna try u on

Am G/B C Dm

I'm curious for you

F E

Caught my attention



Am C Dm

I kissed a girl and I liked it

F E

The taste of her cherry chapstick

Am C Dm

I kissed a girl just to try it

F E

I hope my boyfriend don't mind it

Am C

It felt so wrong

D

It felt so right

F E

Don't mean I'm in love tonight

Am C Dm

I kissed a girl and I liked it

F E Am

I liked it



Am G/B C Dm

No I don't even know your name

F E

It doesn't matter

Am G/B C Dm

You're my expiramental game

F E

Just human nature



Am G/B

It's not what

C Dm

Good girls do

F E

Not how they should behave

Am G/B

My head gets

C Dm

So confused

F E

Hard to obey



Am C Dm

I kissed a girl and I liked it

http://www.coveralia.com/acordes/i-kissed-a-girl-katy-perry.php

F E

The taste of her cherry chapstick

Am C Dm

I kissed a girl just to try it

F E

I hope my boyfriend don't mind it

Am C

It felt so wrong

D

It felt so right

F E

Don't mean I'm in love tonight

Am C Dm

I kissed a girl and I liked it

F E

I liked it



F Em Am

Us girls we are so magical

Em F

Soft skin, red lips, so kissable

Em Am

Hard to resist so touchable

Em

Too good to deny it

F Am

Ain't no big deal, it's innocent



Am C Dm

I kissed a girl and I liked it

F E

The taste of her cherry chapstick

Am C Dm

I kissed a girl just to try it

F E

I hope my boyfriend don't mind it

Am C

It felt so wrong

D

It felt so right

F E

Don't mean I'm in love tonight

Am C Dm

I kissed a girl and I liked it

F E Am

I liked it



E|-----------------------|-----------------------|------------------------|-----------------------|

B|-----------------------|-----------------------|------------------------|-----------------------|

G|-----------------------|-----------------------|------------------------|-----------------------|

D|-----------------------|-----------------------|0-0-0-0-0-0-0-0-0-0-0-0-|3-3-3-3-3-3-2-2-2-2-2-2|

A|0-0-0-0-0-0-0-0-0-0-0-0|2-2-2-2-2-2-3-3-3-3-3-3|------------------------|-----------------------|

E|-----------------------|-----------------------|------------------------|-----------------------|(4x)



(coro)

E|--------------|--------------|----------------|----------------------------|

B|--------------|--------------|----------------|----------------------------|

G|--------------|--5-----------|--7---------7-9-|--10------10-10-9-------9-9-|

D|--7-----------|--5-----------|--7---------7-9-|--10------10-10-9-------9-9-|

A|--7-----------|--3-----------|--5---------5-7-|--8-------8--8--7-------7-7-|

E|--5-----------|--------------|----------------|----------------------------| (4x)



El acorde de I Kissed A Girl de Katy Perry es una versión de la canción original realizada por colaboradores/usuarios de Coveralia.

¿Has encontrado algún error en esta página? Envíanos tu corrección del acorde