música
Buscador

Acorde de Hueles A Noche De Amor - Miguel Gallardo

INTRO





Dm Dm Gm Gm Dm



e -------1-0----------1-0---------------6-5-3------6-5-3----1--

B -----2-----3------2-----3---------------------------------3--

G ---0------------0-----------------3-------------3---------2--

D -------------------------------------------------------------

A -------------------------------------------------------------

E --------------------------------3-------------3--------------







VERSO



Dm Gm

Hueles a noche de amor

Bb-C F Am

y duermes sobre mi pecho

Dm Gm

mientras apago mi voz

Bb-C F Am

y me saturo de besos



Dm Gm

Hueles a noche mi amor

Bb-C F Am

y me revuelvo en tu cuerpo

Dm Gm

desatando mi furor

Bb-C F Bb A

sin entregarme a tiempo





CORO



A Bb C

Hueles a noche de amooooor.

F Em Dm

y me sabes a tabaco,

Dm Gm

y me sabes a licor

Bb C F Bb A Asus4 A

y te ciño con mis brazos y murmuro una canción





A Bb C

Hueles a noche de amooooor.

F Em Dm

y me sabes a tabaco,

Dm Gm

y me sabes a licor

Bb C F Bb A Asus4 A

y te ciño con mis brazos y murmuro una canción

Dm

Hueles a noche de amor

http://www.coveralia.com/acordes/hueles-a-noche-de-amor-miguel-gallardo.php





VERSO



Dm Gm

Que tarde el amanecer

Bb-C F Am

en llegar a esta casa

Dm Gm

pues no te quiero perder

Bb-C F Am

y no te tendré mañana



Dm Gm

quiero embriagar a mis ojos

Bb-C F Am

a mis manos y a mi boca

Dm Gm

quiero mancharme de todo

Bb-C F Bb A

en esta noche que es loca





CORO



A Bb C

Hueles a noche de amooooor.

F Em Dm

y me sabes a tabaco,

Dm Gm

y me sabes a licor

Bb C F Bb A Asus4 A

y te ciño con mis brazos y murmuro una canción





A Bb C

Hueles a noche de amooooor.

F Em Dm

y me sabes a tabaco,

Dm Gm

y me sabes a licor

Bb C F Bb A Asus4 A

y te ciño con mis brazos y murmuro una canción

Dm

Hueles a noche de amor







Dm Dm Gm Gm Dm



e -------1-0----------1-0---------------6-5-3------6-5-3----1--

B -----2-----3------2-----3---------------------------------3--

G ---0------------0-----------------3-------------3---------2--

D -------------------------------------------------------------

A -------------------------------------------------------------

E --------------------------------3-------------3--------------

Letra subida por: Anónimo

Discos en los que aparece este acorde: 30 Exitos Insuperables

El acorde de Hueles A Noche De Amor de Miguel Gallardo es una versión de la canción original realizada por colaboradores/usuarios de Coveralia.

¿Has encontrado algún error en esta página? Envíanos tu corrección del acorde