música
Buscador

Acorde de Hoy Por Tí, Mañana Por Mí - Angeles Del Infierno

Letra de Hoy Por Tí, Mañana Por Mí

Intro x2 



e------------------------------------------------------

B------------------------------------------------------

G------------------------------------------------------

D--9--7----5----------9--7--7-----7---5----------------

A--7--5----3--7-------7--5-----5------3--7-------------

E-------------5--------------------------5-------------







E D C A

Llegó tu hora, vienen por ti,



E D C A

a convertirte en un hombre de verdad



E D C A

tus 20 años es, una edad ideal



E D C A G

para ponerte un casco y un fusil



G E D C A G...

La patria llama... hay que acudir



G A B C D E

Y una mañana al ...







ocultar esta pestaña Guitarra 1



G--9/7/9------5/3/5

Hoy por ti, mañana por mi



G--7/5/7------9/7/9

solo es cuestión de tiempo



G--9/7/9------5/3/5

Hoy por ti mañana por mi



G--7/5/7 B

Esto no es el fin





e------------------------------------------------------

B------------------------------------------------------

G------------------------------------------------------

D--9--7----5----------9--7--7-----7---5----------------

A--7--5----3--7-------7--5-----5------3--7-------------

E-------------5--------------------------5-------------



E D C A

Durante un tiempo el mundo se olvido de ti



E D C A

abandonado al silencio y a la conducta



E D C A

quisite ser un soldado de verdad



E D C A... G

que con orgullo a su patria...



G E D C A... G

Y cada dia igual que el anterior



G A B C D E

bajo tu almohada mil recuerdos y una cancion...





ocultar esta pestaña Guitarra 1

http://www.coveralia.com/acordes/hoy-por-ti--manana-por-mi-angeles-del-infierno.php



G--9/7/9------5/3/5

Hoy por ti, mañana por mi



G--7/5/7------9/7/9

solo es cuestión de tiempo



G--9/7/9------5/3/5

Hoy por ti mañana por mi



G--7/5/7 B

Esto no es el fin





Solo:



e-12-12-12-12-11-----------------------12----------11-

B----------------14-12-14-12-12----14^-------12-14----

G-----------------------------------------------------

D-----------------------------------------------------

A-----------------------------------------------------

E-----------------------------------------------------



e-12-12-12-12-11----------------------12-14-11-------

B----------------14-12-14-12-12----14----------------

G----------------------------------------------------

D----------------------------------------------------

A----------------------------------------------------

E----------------------------------------------------



e-------------------------------------------------------------

B---------10----------------10----------------10--------------

G-9-11-12----12-11--9-11-12----12-11--9-11-12----12-11---9-11-

D------------------------------------------------------12-----

A-------------------------------------------------------------

E-------------------------------------------------------------



e-------------------------------------------------------------------

B---------10----------------10----------------10--------------------

G-9-11-12----12-11--9-11-12----12-11--9-11-12----12-11--------------

D-------------------------------------------------------------------

A-------------------------------------------------------9xxxx-9xxxx-

E-------------------------------------------------------7xxxx-7xxxx-



Guitarra 1



G--9/7/9------5/3/5

Hoy por ti, mañana por mi



G--7/5/7------9/7/9

solo es cuestión de tiempo



G--9/7/9------5/3/5

Hoy por ti mañana por mi



G--7/5/7------9-11-12-

Esto no es el fin





Guitarra 1 x



G--9/7/9------5/3/5

Hoy por ti, mañana por mi



G--7/5/7------9/7/9

solo es cuestión de tiempo



G--9/7/9------5/3/5

Hoy por ti mañana por mi



G--7/5/7 B C D E

Esto no es el fin

Letra subida por: Anónimo

Discos en los que aparece este acorde: 666

El acorde de Hoy Por Tí, Mañana Por Mí de Angeles Del Infierno es una versión de la canción original realizada por colaboradores/usuarios de Coveralia.

¿Has encontrado algún error en esta página? Envíanos tu corrección del acorde