música
Buscador

Acorde de How You Remind Me - Nickelback

Letra de How You Remind Me

C9                 F 
Never made it as a wise man 
Bb9                    D#  
I couldn't cut it as a poor man stealin' 
C9                     F 
Tired of livin' like a blind man 
Bb9                       D# 
I'm sick inside without a sense of feelin' 

C9           D#        A# 
And this is how you remind me 
C9        F         A#9           D# 
This is how you remind me of what I really am 
This is how you remind me of what I really am  

(Refrão) 

C5  D#5  A#5  F5 
It's not like you to say sorry 
I was waiting on a different story 

This time I'm mistaken 
For handing you a heart worth breakin' 

And I've been wrong, I've been down 
Into the bottom of every bottle 

These five words in my head  
Scream "Are we having fun yet?" 

(Fim do refrão) 

(C5     F5     A#5     D#5) 
yet, yet, yet, no no 
yet, yet, yet, no no 

C9                       F 
It's not like you didn't know that 
B9                      D# 
I said I love you and I swear I still do 
C9                    F 
And It must have been so bad 
B9                        D# 
Cause living with him must have near killed you 

C9        F         B9           D# 
This is how you remind me of what I really am 
This is how you remind me of what I really am  

(Refrão) 

C5     F5     A#5     D#5 
Yet, yet, yet, no no 
Yet, yet, yet, no no 
Yet, yet, yet, no no 
Yet, yet, yet, no no 

(Interlude) (C9     F  B9     D# (2x) 

C9                 F  B9     D#) 
Never made it as a wise man 
A#9                    D# 
I couldn't cut it as a poor man stealin' 

C9          D#        A# 
And this is how you remind me 
C9          D#        A# 
This is how you remind me 
C9        F         A#9           D# 
This is how you remind me of what I really am 
This is how you remind me of what I really am 

(Refrão) 

C5     F5     A#5    D#5 
yet, yet, Are we having fun yet?" 
C5     F5     A#5    D#5 
yet, yet, Are we having fun yet?" 
C5     F5     A#5    D#5 
yet, yet,  Are we having fun yet?" 
C5     D#5     A#5     
Yet, yet 

ocultar esta pestaña (Riff 1) 

E|---3--------------3-------------1---------------1------------| 
B|---3--------------3-------------1---------------1------------| 
G|---5--------------5-------------3---------------3------------| 
D|---5--------------5-------------3---------------3------------| 
A|---3----------------------------1----------------------------| 
E|------------------3-----------------------------1------------| 

(Riff 2) 

E|--------------------------------------| 
B|--------------------------------------| 
G|--------------------------------------| 
D|-----5----------8-----------10--------| 
A|--------------------------------------| 
E|-----3----------6-----------8---------| 

(Refrão) Distorção 

E|-----------------------------------------------------| 
B|-----------------------------------------------------| 
G|---5-------------------------3-----------------------| 
D|---5-----------1-------------3------------3----------| 
A|---------------1--------------------------3----------| 
E|---3-----------1-------------1------------3----------| 

(Intro) (Riff 1) 

(Riff 1) 
Never made it as a wise man  
I couldn't cut it as a poor man stealin'  
Tired of livin' like a blind man  
I'm sick inside without a sense of feelin' 

(Riff 2) 
And this is how you remind me  

(Riff 1) 
This is how you remind me  
Of what I really am  
This is how you remind me  
Of what I really am  

(Refrão) 
It's not like you to say sorry  
I was waiting on a different story  
This time I'm mistaken  
For handing you a heart worth breakin'  
I've been wrong, I've been down  
To the bottom of every bottle  
These five words in my head  
Scream "Are we having fun yet?"  

(Riff 1) 
Yet?, Yet?, Yet?, no no  

It's not like you didn't know that  
I said I love you and I swear I still do  
It must have been so bad  
'Cause living with me must have damn near 
killed you... 

Letra subida por: Anónimo

El acorde de How You Remind Me de Nickelback es una versión de la canción original realizada por colaboradores/usuarios de Coveralia.

¿Has encontrado algún error en esta página? Envíanos tu corrección del acorde