música
Buscador

Acorde de How Great Thou Art (With Vince Gill) (Live From Acm Presents: Girls' Night Out) - Carrie Underwood

Letra de How Great Thou Art (With Vince Gill) (Live From Acm Presents: Girls' Night Out)

INTRO:  Ab



VERSE:

Ab Db

O Lord, my God, when I in awesome wonder

Ab Eb Ab

Consider all the worlds Thy Hands have made

Ab Db

I see the stars, I hear the rolling thunder,

Ab Eb Ab

Thy power throughout the universe displayed





CHORUS:

Ab Db Ab

Then sings my soul, My Saviour God, to Thee,

Eb Db Ab

How great Thou art, how great Thou art.

Ab Db Ab

Then sings my soul, My Saviour God, to Thee,

Eb Ab

How great Thou art, how great Thou art!





INSTRUMENTAL: (2:10 - 3:33)

Ab Db Ab Eb Ab

Ab Db Ab Eb Ab

Ab Db Ab Eb Ab

Ab Db Ab Eb Ab



02:10

e|------------|----------s--|-rbp---s--|--s--3-4--s---s---p-----s--|

B|---------s--|-------4-46-|-4--2-46-|-46-----41-46~~-4--4~1-|

G|-b-5-8--85-|---b-5-------|----------|---------------------------|

D|-8----------|---8---------|----------|---------------------------|

A|------------|-6-----------|----------|---------------------------|

E|------------|-------------|----------|---------------------------|



e|---p-----------p------|

B|-4--1-4-2-2-2-2-1-1-1-|

G|----------------------|

D|----------------------|

A|----------------------|

E|----------------------|



02:31 s p b rbp s

e|------s--|--h-p--------|-68-11--11-9-11--11-9-1113-|

B|-b-1-46-|-4-6-4---4-4-|-----------------------------|

G|-3-------|-------5-----|-----------------------------|

D|---------|-------------|-----------------------------|

A|---------|-------------|-----------------------------|

E|---------|-------------|-----------------------------|



e|-----brp-p-------------------|--------------|

B|-----8--7-6-----s------------|--h-----------|

G|--h---------8--810--h---8-8-|-5-8-6--6-5-5-|

D|-5-6----------------8-10-----|--------------|

A|-----------------------------|--------------|

E|-----------------------------|--------------|



...hold...

02:51 ...bend...

e|------------b--|---|---|----p----br------------s---------|

B|----9-11-9-11-11--11--11--11-9-9-8--6-8-9--s--46---p----|

G|-8----------------------------------------85------8-5-8-|

D|---------------------------------------------------------|

A|---------------------------------------------------------|

http://www.coveralia.com/acordes/how-great-thou-art--with-vince-gill---live-from-acm-presents--girls--night-out--carrie-underwood.php

E|---------------------------------------------------------|



h h p

e|-----8-11-8-11-8-11--9-8---p-s----------|

B|---9---------------------11-98----8--s-|

G|-8------------------------------10---8-|

D|----------------------------------------|

A|----------------------------------------|

E|----------------------------------------|



03:07 b | rb h

e|------------------------------|------16----18--18--18--16-18-16-|

B|--h-s---p----------h--6--p----|-16~~----16----------------------|

G|-5-810--8-6-8-5--5-8---8-5-8-|---------------------------------|

D|------------------------------|---------------------------------|

A|------------------------------|---------------------------------|

E|------------------------------|---------------------------------|



s s brp s

e|-161513-|-15--1311-13---h-----s---|

B|----------|--------------11-13-1316-|

G|----------|--------------------------|

D|----------|--------------------------|

A|----------|--------------------------|

E|----------|--------------------------|



03:23

p h p

e|-4-3-4--6-~~~-|-11-8-9-8--------------------|

B|--------------|----------11-9-8--------p-s--|

G|--------------|-----------------10-8-10-85-|

D|--------------|-----------------------------|

A|--------------|-----------------------------|

E|--------------|-----------------------------|





e|----------------------------------|

B|--h-p-----------------------------|

G|-5-6-5---5------------------------|

D|-------8---6--s-------------------|

A|-------------86-8-6--7-5---------|

E|--------------------------7-5-4-2-|





VERSE:

F Bb Eb

When Christ shall come with shout of acclamation

Bb F Bb

And lead me home, what joy shall fill my heart!

F Bb Eb

Then I shall bow in humble adoration,

Bb F Bb

And then proclaim, "My God, how great Thou art!"





CHORUS:

Bb Eb Bb

Then sings my soul, My Saviour God, to Thee,

F Eb Bb

How great Thou art, how great Thou art.

Bb Eb Bb

Then sings my soul, My Saviour God, to Thee,

Cm F Gm

How great Thou art, how great Thou art!

Bb F Bb Eb Bb

How great Thou art, how great Thou art!

Discos en los que aparece este acorde: Greatest Hits: Decade #1

El acorde de How Great Thou Art (With Vince Gill) (Live From Acm Presents: Girls' Night Out) de Carrie Underwood es una versión de la canción original realizada por colaboradores/usuarios de Coveralia.

¿Has encontrado algún error en esta página? Envíanos tu corrección del acorde