música
Buscador

Acorde de Hometown Heroes; National Nobodies - All Time Low

Letra de Hometown Heroes; National Nobodies

 Intro 



E|-------------------------|

B|-------------------------|

G|-----999------999--------|

D|-777------666-----7h9p7--|

A|-------------------------|

E|-------------------------| (x4)







E|-------------------------------------------------|

B|--10--10--10--9--9--9----------------------------|

G|-----------------------9--9--9-------------------|

D|--------------------------------9--9--9--9h11p9--|

A|-------------------------------------------------|

E|-------------------------------------------------| (x3)



E|-----------------------------------------------|

B|--10--10--10--9--9--9--12--12--12--12--12--12--|

G|-----------------------------------------------|

D|-----------------------------------------------|

A|-----------------------------------------------|

E|-----------------------------------------------|





E|------------------------------------4--4----4-4-4-4-5--5--5-5-5-5-|

B|-5-5----5-5-5-5-5---5----5-5-5-5----x--x----x-x-x-x-x--x--x-x-x-x-|

G|-x-x----x-x-x-x-x---x----x-x-x-x----1--1----1-1-1-1-2--2--2-2-2-2-|

D|-2-2----2-2-2-2-2---2----2-2-2-2----------------------------------|

A|------------------------------------------------------------------|

E|------------------------------------------------------------------|





A E

They've had chances to make this big city seem so small,

F#m D

Under stage lights, in rooms packed from window to wall,

A E

Like the sound of a smile, or the distance of song,

F#m D

only measured in time as the kids sing along.



F#m

They are

D E

the ones who make a difference,

D E D

get these people on their feet.







E F#m D

They say let us be heard...

E F# D

Hear us out...





D E

Can you hear the crowd is calling,

F#m

Hey, sing louder now, you've got to

D E F#m

Show them what it means to be alive...

http://www.coveralia.com/acordes/hometown-heroes--national-nobodies-all-time-low.php

D E F#m

Dancing through the night has never been so rock n' roll, You've got a

D E F#m

Good thing and it's time to let them know.



(palm muted)



E|------------------------------------------------------------------------------------|

B|------------------------------------------------------------------------------------|

G|------------------------------------------------------------------------------------|

D|--4--4------4--4------0--0------0--0------0--0--0--0------2--2------2--2------2--2--|

A|--4--4------4--4------0--0------0--0------0--0--0--0------2--2------2--2------2--2--|

E|--2--2------2--2------0--0------0--0------0--0--0--0------0--0------0--0------0--0--|





E|------------------------|

B|------------------------|

G|------------------------|

D|--2--2------2--2--2--2--|

A|--2--2------2--2--2--2--|

E|--0--0------0--0--0--0--| (x2)





(palm muted)



A E F#m D

Win their hearts with words unlike the pages left at home,

A E F#m D

Secrets kept from critics no one ever wants to know...



D E

Can you hear the crowd is calling,

F#m

Hey, sing louder now, you've got to

D E F#m

Show them what it means to be alive...

D E F#m

Dancing through the night has never been so rock n' roll, You've got a

D E F#m

Good thing and it's time to let them know.





E|--12--12--12-----------------------------------------------|

B|--------------12--12--12--14--14--14-----------------------|

G|-------------------------------------13--13--13--13--14----|

D|-----------------------------------------------------------|

A|-----------------------------------------------------------|

E|-----------------------------------------------------------| (x7)



E|--12--12--12------------------------------------------------------|

B|--------------12--12--12--15--15--15--14--14--14--14--14--14--14--|

G|------------------------------------------------------------------|

D|------------------------------------------------------------------|

A|------------------------------------------------------------------|

E|------------------------------------------------------------------|







F#m

Sing louder now...

D E F#m

Lets dance the night away..

Letra subida por: Anónimo

Discos en los que aparece este acorde: The Party Scene

El acorde de Hometown Heroes; National Nobodies de All Time Low es una versión de la canción original realizada por colaboradores/usuarios de Coveralia.

¿Has encontrado algún error en esta página? Envíanos tu corrección del acorde