música
Buscador

Acorde de Hollywood Boulevard - Los Peores De Chile

Letra de Hollywood Boulevard

Intro: B

B                  D             F#
e---------------------------|    e-----------------|
B---------------------------|    B-----------------|
G---------------------------| x2 G-3~4-9-9-7-7-7---|
D-----2-2-2-------2-4-2-----|    D---------------9-|
A-2-5-------5-2-5-------5-2-|    A-----------------|
E---------------------------|    E-----------------|

e---------------------------|    e-------12-12-10-10-10----|
B---------------------------|    B-10~12----------------12-|
G---------------------------| x2 G-------------------------|
D-----2-2-2-------2-4-2-----|    D-------------------------|
A-2-5-------5-2-5-------5-2-|    A-------------------------|
E---------------------------|    E-------------------------|

B                     D
 Yo se que tu lo sabes, Lo has visto muchas veces
F#
 Este Planeta esta al reves
B                     D
 Y Dios es un Negocio, La Iglesia nunca Hierra
F#
 Miren al Papa que vive como Dios.

E            B              F#
 Y ya no hay nada en que creer
 Y ya no hay nadie en quien creer
 Y ya no hay nada en que creer
 Y ya no hay nadie en quien creer

B                           D
 Lo Hippies ya estan viejos, pero sus chascas no
F#
 Mientras los Punkies se afeitan la cabeza
B                    D
 Y la Derecha juega, y el Centro tambien
F#
 miren la Izquierda como hacen barra.

E            B              F#
 Y ya no hay nada en que creer
 Y ya no hay nadie en quien creer
 Y ya no hay nada en que creer
 Y ya no hay nadie en quien creer

E         B         F#
E---------------------|
B---5-4/5-------------|
G-4-------4-4-3/4-3---| x4
D-------------------4-|
A---------------------|
E---------------------|

  B
NO no creo en lo que hablas
  D
NO no creo en lo que digas
  A
NO no creo en lo que sientes
  F#
NO no creo en nada mas
  B
NO no creo en tus Banderas
  D
NO no creo en tus Fronteras
  A
NO no creo en tus Dilemas
  F#
NO no creo mas en ti
  B
NO no creo en lo que sueñas
  D
NO no creo en lo que rezas
  A
NO no creo en lo que mientes
  F#
NO no creo en el carajo!

E            B              F#
 Y ya no hay nada en que creer
 Y ya no hay nadie en quien creer
 Y ya no hay nada en que creer
 Y ya no hay nadie en quien creer ¡Al Infierno los Boletos!

B                  D             F#
e---------------------------|    e-----------------|
B---------------------------|    B-----------------|
G---------------------------| x2 G-3~4-9-9-7-7-7---|
D-----2-2-2-------2-4-2-----|    D---------------9-|
A-2-5-------5-2-5-------5-2-|    A-----------------|
E---------------------------|    E-----------------|

e---------------------------|    e-------12-12-10-10-10----|
B---------------------------|    B-10~12----------------12-|
G---------------------------| x2 G-------------------------|
D-----2-2-2-------2-4-2-----|    D-------------------------|
A-2-5-------5-2-5-------5-2-|    A-------------------------|
E---------------------------|    E-------------------------|

termina con E


Letra subida por: Anónimo

Discos en los que aparece este acorde: Sindrome Camboya

El acorde de Hollywood Boulevard de Los Peores De Chile es una versión de la canción original realizada por colaboradores/usuarios de Coveralia.

¿Has encontrado algún error en esta página? Envíanos tu corrección del acorde