música
Buscador

Acorde de Historia Triste - Eskorbuto

Letra de Historia Triste

(intro 4x) B G D A 



B G

Pasan los años, pasa tu vida

D A

pasan los meses, pasan tus días

B G

Pasan las horas, tambien tus minutos

D A

este puede ser tu último segundo



B G D A

Oohhhh, historia triste

B G D A

Oohhhh, historia histórica

B G D A

Oohhhh, historia final



(B G D A) (3x)



B G

Una mañana muy temprano

D A

de tus sueños despertarás

B G

no lo sabrás, ese es tu día

D A

vas a morir



B G D A

Oohhhh, historia triste

B G D A

Oohhhh, historia histórica

B G D A

Oohhhh, historia final

http://www.coveralia.com/acordes/historia-triste-eskorbuto.php



ocultar esta pestaña (solo 2x) B G D A



E|-----------------0-0--2-2--0-0--------------------------------

B|-------0-0--3-3-----------------3-3--0-0----------------------

G|--2-2-----------------------------------------------0-0--2-2--

D|------------------------------------------0-0--4-4------------



E|-------------------------------------0-0--2-2--00-------------------------------

B|--2--5-5-5-5--3--5-5-------0-0--3-3----------------3-3--00----------------------

G|----------------------2-2---------------------------------------------0-0--2-2--

D|------------------------------------------------------------0-0--4-4------------



E|-------------------------------------0-0--2-2--0-0--------------------------------

B|--2--5-5-5-5--2--5-5-------0-0--3-3-----------------3-3--0-0----------------------

G|----------------------2-2-----------------------------------------------0-0--2-2--

D|--------------------------------------------------------------0-0--4-4------------



E|----------------------

B|--2--5-5-5-5--2--5-5--



B G D A

Oohhhh, historia triste

B G D A

Oohhhh, historia histórica

B G D A

Oohhhh, historia final



B G D A

Oohhhh,Oohhhh (8x)



B G D A

Oohhhh,historia final

Letra subida por: Anónimo

El acorde de Historia Triste de Eskorbuto es una versión de la canción original realizada por colaboradores/usuarios de Coveralia.

¿Has encontrado algún error en esta página? Envíanos tu corrección del acorde