música
Buscador

Acorde de Hey Bulldog - The Beatles

Letra de Hey Bulldog

Hey Bulldog 



Intro riff 1

----------------------------------------------------------------------

----------------------------------------------------------------------

----------------------------------------------------------------------

--------------2-----3--4--------------4-----3--2----------------------

--2--2--5--2-----2--------2--2--5--2-----2----------------------------

----------------------------------------------------------------------



Verse:



Riff 1 3x



Chords used:



B7: x24242 F#m: 244222 A: x02220 E: 022100 E7: 022130



B7 F#m

Sheepdog standing in the rain

B7 F#m

Bullfrog doing it again

A F#m E E7

Some knid of happiness is measured out in miles

A F#m B7

What makes you think you're something special when you smile?



B7 F#m

Childlike no one understands

B7 F#m

Jack knife in your sweaty hands

A F#m E E7

Some kind of solitude is measured out in years

A F#m E E7

You don't know what it's like to listen to your fears



Chorus:



Use these chords in sequence. You'll be able to hear the rhythm

http://www.coveralia.com/acordes/hey-bulldog-the-beatles.php

easily.

Bm: 7997xx Bm(#5): 7,10,97xx Bm6: 7,11,97xx Bm7: 7977xx

The last two beats are Em: 022000 Em(#5): 022010



And you can talk to me, you can talk to me



You can talk to me, if you're lonely you can talk to me



Riff 1 2x then the solo



Verse:



B7 F#m

Big man walking in the park

B7 F#m

Wig Wam frightened of the dark

A F#m E E7

Some kind of innocence is measured out in you

A F#m E E7

You think you know me but you haven't got a clue



Chorus:



Then Riff 2 throughout the fade



----------------------------------------------------------------------

----------------------------------------------------------------------

----------------------------------------------------------------------

--------------2-----3--4----------------------------------------------

--2--2--5--2-----2--------------------4-----3--2----------------------

--------------------------2--2--5--2-----2--------5-------------------



Hey bulldog, hey bulldog



Hey bulldog, hey bulldog



Hey bulldog, hey bulldog

El acorde de Hey Bulldog de The Beatles es una versión de la canción original realizada por colaboradores/usuarios de Coveralia.

¿Has encontrado algún error en esta página? Envíanos tu corrección del acorde