música
Buscador

Acorde de Here We Go Again - Demi Lovato

Letra de Here We Go Again

Intro:



Guitar 1:

F Dm Bb F

e|-1---------------|-1--3--5--3--1-3-|-6--5--3--1--3-5-|-1-|

B|----1------------|-----------------|-----------------|---|

G|-------2--0----0-|-----------------|-----------------|---|

D|-------------3---|-----------------|-----------------|---|

A|-----------------|-----------------|-----------------|---|

E|-----------------|-----------------|-----------------|---|

x2



Guitar 2: until verses

e|---------------------------------|

B|---------------------------------|

G|-----0-----2-----3-----2-----0---|

D|-3-3---3-3---3-3---3-3---3-3---3-| x4

A|---------------------------------|

E|---------------------------------|





Verse 1:

F

I throw all of your stuff away

And then I clear you out of my head

Dm

I take you out of my heart

Bb

And ignore all your messages

F

I celebrate when we got through

Dm

Cause I'm so much better without you

Bb

But it's just another pretty lie

Cause I break down

Gm Bb

Everytime you come around

O Oh O Oh





Chorus:

F

So how did you get here

Under my skin?

C

I swore that I'll never

let you back in

Gm

Should have known better

Bb

In trying to let you go

Cause here we go go go again

F

Part of that joy I

know I can't quit

C

Something about you

Is so addictive

Gm

We're falling together

Bb

You think to find now I know

Cause here we go go go again





Verse 2:

F

You never know what you want

You never say what you need

Dm

But I start to go insane

Bb

Everytime that you look at me

F

You only hear half of what I say

Dm

And you're always showing up too late

http://www.coveralia.com/acordes/here-we-go-again-demi-lovato.php

Bb

And I know that I should say goodbye

But it's no use

Gm Bb

Can't Be With Or Without You

O Oh O Oh





(Repeat Chorus)





Bridge:

Bb C Dm F C/E Dm x2

Ohhh

Bb

And Again

C

(And Again)

Dm

And Again

F C/E Dm

(And Again)

Bb C Dm F C/E Dm

And Again





Verse 3:

F

I threw all of

your stuff away

And I cleared

you out of my head

Dm

And I tore you

Bb

out of my heart

O Oh O Oh

O Oh O Oh





(Repeat Chorus)





Outro:

F

here we go again

C

here we go again

Gm

Should have known better

Bb

In trying to let you go

F--

Cause here we go go go again

again again again again...





Guitar 2: Outro, Very fast sweeping!!!

F C Gm Bb

e|-6-5-----8-6-5---|---------------5-6-|-6-5-----8-6-5---|-10-|

B|-----8-6-------6-|-5-------5-6-7-----|-----8-6-------6-|----|

G|-----------------|-----5-7-----------|-----------------|----|

D|-----------------|-------------------|-----------------|----|

A|-----------------|-------------------|-----------------|----|

E|-----------------|-------------------|-----------------|----|

x4 x4





"again and again..."

e|-1---------------|

B|----1------------|

G|-------2--0----0-|

D|-------------3---|

A|-----------------|

E|-----------------|

x2

El acorde de Here We Go Again de Demi Lovato es una versión de la canción original realizada por colaboradores/usuarios de Coveralia.

¿Has encontrado algún error en esta página? Envíanos tu corrección del acorde