música
Buscador

Acorde de Hello, Goodbye - The Beatles

Letra de Hello, Goodbye

hello, hello, hello...

E----------------------------------------------------------------

B----------------------------------------------------------------

G----------------------------------------------------------------

D-----2-3-5-3-2-----------2---------------------------2-3-5...---

A-3-3-----------5-----3-5---5-3-----------------2-3-3------------

E-----------------5-5-----------5-1-1-1-3-4-4-4------------------



go,go,go... Solo:

E---------------------8----|--------------------------------8---

B-----------------------8--|---6-6----5-5---3-3---------5-8-----

G--------------------------|-7------5-----4---------4-5---------

D-7-5----------------------|--------------------5-7-------------

A-----8-7-5----------------|------------------------------------

E-----------8-7-5-3--------|------------------------------------





Dm/F C

You say yes, I say no,

G7 Am G7 Am G7

You say stop, and I say go, go, go. Oh no

F C C/B Am G

You say goodbye and I say hello, hello, hello.

F G# C C/B Am G

I don't know why you say goodbye, I say hello, hello, hello.

F Bb C

http://www.coveralia.com/acordes/hello--goodbye-the-beatles.php

I don't know why you say goodbye, I say hello.



I say high, you say low,

You say why, and I say I don't know.Oh no.

You say goodbye and I say hello, hello, hello.

I don't know why you say goodbye, I say hello, hello, hello.

I don't know why you say goodbye, I say hello.



Why, why, why, do you say goodbye, goodbye bye bye bye bye? Oh no.

You say goodbye and I say hello, hello, hello.

I don't know why you say goodbye, I say hello, hello, hello.

I don't know why you say goodbye, I say hello.



You say yes, I say no,

(I say yes),(but I mean no)

You say stop, I say go, go, go. Oh no.

(I can stay still it's time to go)

You say goodbye and I say hello, hello, hello.

I don't know why you say goodbye, I say hello, hello, hello.

I don't know why you say goodbye, I say hello.

F G# Cm D/F# F

I don't know why you say goodbye, I say hello-oh-oh-oh-oh-oh-oh-oh.

C

Hello



Letra subida por: Anónimo

Discos en los que aparece este acorde: One , Magical Mystery Tour , Anthology 2 , 1967-1970 , One (2015) , One (2015)

El acorde de Hello, Goodbye de The Beatles es una versión de la canción original realizada por colaboradores/usuarios de Coveralia.

¿Has encontrado algún error en esta página? Envíanos tu corrección del acorde