música
Buscador

Acorde de Hay Amores - Ricardo Arjona

Letra de Hay Amores





E/G# 402450

F#m7 244252

Asus2 x02200





Intro:

E|-------9-10-12---12--9h10--9---------------

B|-10-12-----------------------12--10-10-----

G|-------------------------------------------

D|-------------------------------------------

A|-------------------------------------------

E|-------------------------------------------



E|-------------10----------------------------

B|----10-12-12----12-10------10--------------

G|-11-------------------9h11----9------------

D|-------------------------------------------

A|-------------------------------------------

E|-------------------------------------------



Asus2 E/G# F#m7

No vengas con sermones ni alabanzas

D Asus2

ni vuelvas a decir lo que ya sé

Asus2 E/G# F#m7

trae tus aretes de mudanza

D Asus2

y el vestido aquel que siempre te quité.





Bm F#m

Te invito a que me invites esta noche

G D

al pecado que jamás yo te invité

Bm F#m

te pido a que te abstengas de reproches

G D

si todos mis defectos ya los sé.





Asus2 E/G# F#m

Hay amores como el tuyo

D Asus2

que duelen cuando están o si se van

Asus2 E/G# F#m

hay amores sin orgullo

D Asus2

que viven de perder la dignidad.

http://www.coveralia.com/acordes/hay-amores-ricardo-arjona.php



Bm F#m

Tu vida me sirvió para morirme

G D

la muerte me enseño que hay que vivir.





Asus2 E/G# F#m7

No arregles lo que no se descompuso

D Asus2

que nadie aquí está listo pa' cambiar

Asus2 E/G# F#m7

amores que se gastan con el uso

D Asus2

merecen libertad y descansar.



Bm F#m

No pidas que te diga lo que sabes

G D

ni quieras tu saber lo que no se

Bm F#m

de todo lo demás tienes las llaves

G D

y si hace falta algo, lo olvidé.





Asus2 E/G# F#m

Hay amores como el tuyo

D Asus2

que duelen cuando están o si se van

Asus2 E/G# F#m

hay amores sin orgullo

D Asus2

que viven de perder la dignidad.



Hay amores, hay amores...





Asus2 E/G# F#m7

hay amores sin orgullo

D Asus2

que viven de perder la dignidad.

Bm F#m

Tu vida me sirvió para morirme

G D

la muerte me enseño que hay que vivir





Letra subida por: Anónimo

El acorde de Hay Amores de Ricardo Arjona es una versión de la canción original realizada por colaboradores/usuarios de Coveralia.

¿Has encontrado algún error en esta página? Envíanos tu corrección del acorde