música
Buscador

Acorde de Hasta Que Vuelvas (Bonus Track) - Luis Miguel

Letra de Hasta Que Vuelvas (Bonus Track)

   Gm             F               Eb6 



e|--10-8-8-8/10----------------------------|

b|--------------11-10-11-11/13---10--------|

g|----------------------------------12-12--|

D|-----------------------------------------|

A|-----------------------------------------|

E|-----------------------------------------|



Gm F Eb6



e|--10-8-8-8/10----------------------------|

b|--------------11-10-11-11/13---10--------|

g|----------------------------------12-12--|

D|-----------------------------------------|

A|-----------------------------------------|

E|-----------------------------------------|



(La parte donde entra la orquesta es así y se puntea.)



Cm, F, Bb6, Gm, Cm, Dm6



Después entra la voz que también se hace un pequeño arpegio de notas:



Cm Dm6 Gm

Andaré tu risa que dejó tibio mi lecho

Cm F Bb6

Buscaré tu llanto que perdieras en la noche

Cm F Bb6

Guardaré tu cuerpo que lleno mis alegrías

Gm Cm Dm6

Hasta que vuelvas amor . (Hasta aquí se arpegian las notas)



Cm Dm6 Gm

Andaré el camino que corrías a mi lado

Cm F Bb6

Buscaré el silencio que olvidaras en mis manos

Cm F Bb6

Guardaré la espera que pintaron mis poemas

Gm Cm Dm6

Hasta que vuelvas, amor



Coro:



G6 Bm

Hasta que vuelvas detengo el tiempo

Dm6 E7 Am7

Que nadie pise tu recuerdo

Cm F Bb6

Hasta que vuelvas junto a mis ojos

Am Dm6

Hilando sueños esperare

http://www.coveralia.com/acordes/hasta-que-vuelvas--bonus-track--luis-miguel.php



(El puente se toca así)



Cm, Dm6, G , Cm , F, Bb6,



Cm, F, Bb6, Gm, Cm, Dm6



El solo va asi:



e|------5-6—8/10-8—8-6-6-------------8h10-6-|

b|--8-8---------------------10—-8-10--------|

g|------------------------------------------|

D|------------------------------------------|

A|------------------------------------------|

E|------------------------------------------|



e|--------------10—13-11—11-10-10-----------------|

b|------9-10-12--------------------13---13-13/15~-|

g|---11-------------------------------12----------|

D|------------------------------------------------|

A|------------------------------------------------|

E|------------------------------------------------|



Cm F Bb6

Guardaré tu cuerpo que lleno mis alegrías

Gm Cm Dm6

Hasta que vuelvas amor .



Coro:



G6 Bm

Hasta que vuelvas detengo el tiempo

Dm6 E7 Am7

Que nadie pise tu recuerdo

Cm F Bb6

Hasta que vuelvas junto a mis ojos

Am Dm6

Hilando sueños esperare



G6 Bm

Hasta que vuelvas detengo el tiempo

Dm6 E7 Am7

Que nadie pise tu recuerdo

Cm F Bb6

Hasta que vuelvas junto a mis ojos

Am Dm6

Hilando sueños esperare.



(Así se toca el final).



G6, Bm, Cm, G6

Letra subida por: Anónimo

Discos en los que aparece este acorde: Mis Boleros Favoritos

El acorde de Hasta Que Vuelvas (Bonus Track) de Luis Miguel es una versión de la canción original realizada por colaboradores/usuarios de Coveralia.

¿Has encontrado algún error en esta página? Envíanos tu corrección del acorde