música
Buscador

Acorde de Hanging Over - Blur

Letra de Hanging Over


Intro:

D --9--
A --9-- (with slight bend)
E --7--

Verse:

E|----------------------------|
B|----------------------------|
G|--------------------7-7/9\--|
D|--------9--5------7---7/9\--|
A|------9----5--5-5-----5/7\--|
E|--7-7------3----------------|

     B   G       D               E
I'm alive, I can breathe the air

      B         G     D              E
I can hurt you, I can pull out hair

     B    G D            E
Some song into your room

          B        G    D            E
You can't catch me, I'm carried away

       B  G   D                 E
I woke up to another lead door

            B  G    D                   E
I'm getting up with nothing on my mind

         B               G       D                 E
Half way down the stairs I get a pain in my chest

                 B    G D               E
I shouldn't have ever...got out of bed


Chorus:

E ------------------     -----------|
B ------------------     -----------|
G ------------------ 3x  -----------|
D --7-7-7-7----5----     --5-5-7-7--|
A --7-7-7-7--7---7--     --5-5-7-7--|
E --5-5-5-5---------     --3-3-5-5--|

     A                    (A7)        A
Then everything shattered just at the point that it mattered

(A7)      A                    (A7)        G             A
Yes, then everything shattered just at the point that it mattered

 B
Ahaaa


    B    G       D                E
I'm alive, I can breathe the air

      B        G      D              E
I can hurt you, I can pull out hair

        B               G     D               E
Hand it into your mind, don't put it in mine

          B       G     D             E
You can't catch me, I'm carried away

       B   G      D             E
I woke up, I woke up every day

       B        G        D              E
I have nothing, there is nothing to say

         B               G       D                E
Half way down the stairs I get a pain in my chest

                 B    G D               E
I shouldn't have ever...got out of bed


E|------------------------------|
B|------------------------------|
G|---------------------9-9/11\--|
D|---------11-7------9---9/11\--|
A|------11----7--7-7-----7/9\---|
E|--9-9-------5-----------------|

     C#   A      E               F#
I'm alive, I can breathe the air

      C#        A     E              F#
I can hurt you, I can pull out hair

     C#   A E            F#
Some song into your room

          C#        A   E            F#
You can't catch me, I'm carried away

            C#     A    E       F#
I'm hanging over.....


Letra subida por: Anónimo

Discos en los que aparece este acorde: For Tomorrow (Cd Single)

El acorde de Hanging Over de Blur es una versión de la canción original realizada por colaboradores/usuarios de Coveralia.

¿Has encontrado algún error en esta página? Envíanos tu corrección del acorde