música
Buscador

Acorde de HALLOMANN - Rammstein

Letra de HALLOMANN

[Verse 1]



Let Ring--------|

e|----12-----------------------|

B|-----------14----------------|

G|-15----15--------------------|

D|-----------------------------| x3

A|-----------------------------|

E|-----------------------------|



Let Ring--------| A.H.

e|----12-----------------------|

B|-----------14-------13--12---|

G|-15----15--------------------|

D|-----------------------------|

A|-----------------------------|

E|-----------------------------|



Bb5

Hallo kleines Mädchen, wie geht es dir?



Mir geht es gut, sprich nicht zu mir



Steig einfach ein, ich nehm' dich mit



Und kaufe dir Muscheln mit Pommes Frites

Bb5

Es ist schon warm und du bist schön



Und hast das Meer noch nicht geseh'n

Bbm Ab

Du bist alleine, ich ganz allein

F

Sprich nicht zu mir, steig einfach ein





[Chorus]



Fm Ebm

Sing für mich, komm, sing

Ab Bb

Perle auf dem Ring

Bbm Ab

Tanz für mich und dann

F

Kommt zu dir der Hallomann





[Verse 2]



Let Ring---------------------|

e|-----------------------------|

B|-------11----------------8---|

G|----10-----------------6-----|

D|--8------------------8-------| x2

A|-----------------------------|

E|-----------------------------|



http://www.coveralia.com/acordes/hallomann-rammstein.php

Bb5

Die Sonne scheint uns auch auf den Bauch



Sag einfach nichts und mach es auch



Gib mir dein Wort, nimm meine Hand



Wir bau'n was Schönes aus Haut und Sand

Bbm Ab

Nichts wird danach wie früher sein

F

Sprich nicht zu mir, steig einfach ein





[Chorus]



Fm Ebm

Sing für mich, komm, sing

Ab Bb

Perle auf dem Ring

Bbm Ab

Tanz für mich, komm tanz

F

Blondes Haar und Rosenkranz





[Solo]



Fm Ebm Ab Bb

Bbm Ab F





[Bridge]



Bb5

Hallo kleines Mädchen



Wir geht es dir?





[Interlude]



D5 D5 D5 D5

Bb5 Bb5 D5 D5





[Chorus]



Fm F

Sing für mich, komm, sing

Ab Bb

Frag nicht nach dem Sinn

Bbm Ab

Sing für mich und dann

F

Auf den Wellen dein Gesang



Discos en los que aparece este acorde: Rammstein

El acorde de HALLOMANN de Rammstein es una versión de la canción original realizada por colaboradores/usuarios de Coveralia.

¿Has encontrado algún error en esta página? Envíanos tu corrección del acorde