música
Buscador

Acorde de Hacer El Amor Con Otro - Alejandra Guzman

Letra de Hacer El Amor Con Otro





|--------7h9-9-9-9/7-7-7/4-4/2----2----

|--------7h9-9-9-9/7-7-7/4-4/2----4----

|-----------------------------4---4----

|------------------------------4--4----

|---------------------------------2----

|-7-------------------------------2----





|-----------

|-----------

|-----------

|-----------

|----------

|---2-5-7---



|--------7h9-9-9-9/7-7-7/4-4/2----2----

|--------7h9-9-9-9/7-7-7/4-4/2----4----

|-----------------------------4---4----

|------------------------------4--4----

|---------------------------------2----

|-7-------------------------------2----







B F# B

Amanecer con el

B

a mi costado no es igual

FA#

estar contigo

C#m E

No es que este mal

FA#

ni hablar

C#m E

pero le falta madurar

F#

es casi un niño





B F# B

Blanco como el yogurth

B

sin ese toro que tu llevas

F#

en el pecho

C#m E F#

frajilidad de flor

C#m

nada que ver

E

con mi perverso

F#

favorito





E

Sin tus uñas

F# B

arañandome la espalda

G#m

sin tus manos

C#m

que me estrujan

F#

todo cambia

E F#

sin tu lengua envenenando

B

mi garganta

C#

sin tus dientes que torturan

F# F#7

y endulzan yo no siento nada…





B

Hacer el amor con otro

F#

no no no

E

no es la misma cosa

B F#

no hay estrellas de color rosa

http://www.coveralia.com/acordes/hacer-el-amor-con-otro-alejandra-guzman.php

G#m

no respiran los poros

F#

del cuerpo

E

ambrosia salpicada

B F#

de te quieros.

B

Hacer el amor con otro

F#

no, no no

E B F#

es como no hacer nada falta fuego en la mirada

G#m F#

falta dar el ama en cada beso

E B F#

y sentir que puedes alacanzar el cielo



B F# B

Quize olvidarte con el

B

quize vengar todas

F#

tus infidelidades

C#m E F#

y me salio tan mal

C#m

que hasta me cuesta

E F#

respirar tu mismmo aire



E F#

Los mechones de tu pelo

B

negro crespo

G#m C#m

tus caderas afiladas

F#

y escurridas

E F# B

esa barba que raspaba como lija

C#

y tu risa retorcida

F#

son los mejor que hay

F#7

en mi vida…





B

Hacer el amor con otro

F#

no no no

E

no es la misma cosa

B F#

no hay estrellas de color rosa

G#m

no respiran los poros

F#

del cuerpo

E

ambrosia salpicada

B F# F#7

de te quieros



B

Hacer el amor con otro

F#

no no no

E

es como no hacer nada

B F#

manda fuego en la mirada

G#m

falta dar el alma

F#

en cada beso

E

y sentir que puedes

B F#

alcanzar el cielo..



Letra subida por: Anónimo

¿Has encontrado algún error en esta página? Envíanos tu corrección del acorde