música
Buscador

Acorde de Golpe A Golpe - Horcas

Letra de Golpe A Golpe

INTRO: Riff1



e-----------------------------------------------

B-----------------------------------------------

G-----------------------------------------------

D----7-9-10----10-9-7--------7-9-10---9--------- x 2

A--8-5-7-8-----8--7-5-8----8-5-7-8----7---------

E--6------------------6----6--------------0-----



Sobre Riff1



Se escuchan tiros en la oscuridad

alguien quizás ya fue historia

ya no tengo tiempo para olvidar

LA confusión MI memoria



F5 A5 F5 A5

golpe a golpe te lo haré entender

golpe a golpe ya no debo caer



Sobre Riff1



mientras el tiempo sigue su camino

me estoy quedando sin chance

puedo cargar con la cruel realidad

no se que estoy esperando



F5 A5 F5 A5

golpe a golpe te lo haré entender

http://www.coveralia.com/acordes/golpe-a-golpe-horcas.php

golpe a golpe ya no debo caer



Riff2

e---------------------------------------------------------

B---------------------------------------------------------

G---------------------------------------------------------

D--9----5--9-7---10-9-10-12--9----5--9-7------------------

A--7----3--7-5---8--7-8--10--7----3--7-5------------------

E-----------------------------------------1-1-1--1-1-1-1--



Estribillo sobre Riff2



una respuesta en mi interior

quizás tu no la comprendas

ya no hay voz no hay piedad

deslzandose entre mi manos



SOLO: Riff2 x 2 Riff 1 x 4



Golpe a golpe te lo haré entender

Golpe a golpe ya no debo caer



una respuesta en mi interior

quizás tu no la comprendas

ya no hay voz no hay piedad x 2

deslzandose entre mi manos



Riff2 x 2 E5

Letra subida por: Anónimo

Discos en los que aparece este acorde: Eternos , Horcas Vive

El acorde de Golpe A Golpe de Horcas es una versión de la canción original realizada por colaboradores/usuarios de Coveralia.

¿Has encontrado algún error en esta página? Envíanos tu corrección del acorde