música
Buscador

Acorde de Gold to Me - Ben Harper

Letra de Gold to Me





Tuning: DADDAD (from high to low, or low to high, as you want!)







so here's the chords for this song:

D A D D A D

F 3 3 3 3 3 3

G 5 5 5 5 5 5

D XII 121212121212

A 7 7 7 7 7 7



G

you look like gold to me

F

and I'm not to blind to see

D

you look like gold



you make me want to say

with all the joy you bring

you look like gold



Like the rays down from the sun

when a new day has just begun

you look like gold



A F

I've been fooled before

A G

but now I know

A F

I've made the mistake in the past

A G

but now I know the difference

A D

from gold and brass



not the kind of gold that you wear

but the kind that can feel my care

you look like gold



some shine when the day is new

but fade when the day is through

but you look like gold



I've been wrong before

but now I know

I've made mistakes in the past

but now I know the difference

from gold and brass



solo:

(You really need to play on an high action guitar with heavy strings

in order to avoid pull-of buzzes with the slide...)

D:----------------------------------------------------------------|

A:----------------------------------------------------------------|

D:----------------------------------------------------------------|

D:-7--7-7-7---0--0----0--0--3--7-/-5--3p0--7s5--3p0---3-0---------|

A:--------------------------------------------------------3-0-5---|

http://www.coveralia.com/acordes/gold-to-me-ben-harper.php

D:----------------------------------------------------------------|



D:----------------------------------------------------------------|

A:----------------------------------------------------------------|

D:----------------------------------------------------------------|

D:-7s5-3--0--0-3-0-3----3--3-3--0-0--3/5/3-0--5-5-5/6-3-0-----/3--|

A:-------------------------------------------------------/3-5-----|

D:----------------------------------------------------------------|



D:----------------------------------------------------------------|

A:----------------------------------------------------------------|

D:----------------------------------------------------------------|

D:-------------5--3--5-----0--/3--5-5----0--0-0--3--3-3-3-3--/7-5-|

A:-3--3-3--/5-----------------------------------------------------|

D:----------------------------------------------------------------|



D:----------------------------------------------------------------|

A:---------------------------------------0h2-----0h2-----0h2------|

D:------0--0h2-0h2-0h2-0h2-0h2/3--2p0h2------0h2-----0h2-----0h2--|

D:-3/5------------------------------------------------------------|

A:----------------------------------------------------------------|

D:----------------------------------------------------------------|



D:----------------------------------------------------------------|

A:-0h2------------------------------------------------------------|

D:-----0h2-2-2-2-0-2/3------(the solo is more or------------------|

D:----------------------------less the same as the----------------|

A:----------------------------beginning after...)-----------------|

D:----------------------------------------------------------------|





you look like gold to me

and I'm down on bending knees

you look like gold

and I just want you to know

to me you mean so much more

than all the gold

you look like gold



finising solo

D:----------------------------------------------------------------|

A:-(I don't have any-----------------------------3/0-0------------|

D:--ideas here, all-----3-3-3-3-3-3/5-0----3-3-3------------------|

D:--I know is that he---------------------------------------------|

A:--finishes with :-----------------------------------------------|

D:----------------------------------------------------------------|



And here's my poor attempt to transcribe the Bass part, which is

pretty much the same as Otis Redding 'My Girl' (Cool Song!)

(for the verses only):



G:----------------------------------------------------------------|

D:----------3---3----------3---3---------------------------------?|

A:-1----3/5---5---1----3/5---5------------3---3----------3---3---?|

E:-------------------------------1----3/5---5---1----3/5---5------|









Letra subida por: Anónimo

Discos en los que aparece este acorde: By My Side

El acorde de Gold to Me de Ben Harper es una versión de la canción original realizada por colaboradores/usuarios de Coveralia.

¿Has encontrado algún error en esta página? Envíanos tu corrección del acorde